Oops, an error
Loading. Please wait.

Abracadabra tab

version 1
version 1

Whole song

Interactive

by Lucifer
52 views 1 this week
no commentswrite comment
1 2 3 4 5
3 more votes to show rating
add to favorites
×
Save as Personal and add changes to this tab that will be seen only by you. Learn more ›
×
You can save this tab as Personal to edit and correct it or add notes. All changes will be seen only by you. Learn more »
launch autoscroll
font size
0
reset
how to read this tab
guitar tuner
edit
Autoscroll
slow
fast
+/-
esc
set tempo
stop
[Intro]
C#|-----------------------------------|-----------------------------------|
G#|-----------------------------------|-----------------------------------|
E |-----------------------------------|-----------------------------------|
B |-----------------------------------|-----------------------------------|
F#|-----------7-----------8-----------|---5-----------7-----------7---6---|
C#|---5---------------5-----------5---|-----------5-----------5-----------|

  | PM................................|.................................  |
C#|-----------------------------------|-----------------------------------|
G#|-----------------------------------|-----------------------------------|
E |-----------------------------------|-----------------------------------|
B |-----------------------------------|-----------------------------------|
F#|-----------------------------------|-----------------------------------|
C#|---5---5---5---5---5---5---5---5---|---5---5---5---5---5---5---5---5---|

C#|-----------------------------------|-----------------------------------|
G#|-----------------------------------|-----------------------------------|
E |-----------------------------------|-----------------------------------|
B |-----------------------------------|---5-------------------------------|
F#|-----------7-----------8-----------|-------8---7---8-----------5---7---|
C#|---5---------------5-----------5---|-----------------------5-----------|

  | PM................................|.................................  |
C#|-----------------------------------|-----------------------------------|
G#|-----------------------------------|-----------------------------------|
E |-----------------------------------|-----------------------------------|
B |-----------------------------------|-----------------------------------|
F#|-----------------------------------|-----------------------------------|
C#|---5---5---5---5---5---5---5---5---|---5---5---5---5---5---5---5---5---|

C#|-----------------------------------|-----------------------------------|
G#|-----------------------------------|-----------------------------------|
E |-----------------------------------|-----------------------------------|
B |-----------------------------------|-----------------------------------|
F#|-----------7-----------8-----------|---5-----------------------5---6---|
C#|---5---------------5-----------5---|-----------5---8-------5-----------|

  | PM................................|.................................  |
C#|-----------------------------------|-----------------------------------|
G#|-----------------------------------|-----------------------------------|
E |-----------------------------------|-----------------------------------|
B |-----------------------------------|-----------------------------------|
F#|-----------------------------------|-----------------------------------|
C#|---5---5---5---5---5---5---5---5---|---5---5---5---5---5---5---5---5---|

C#|-----------------------------------|-----------------------------------|
G#|-----------------------------------|-----------------------------------|
E |-----------------------------------|-----------------------------------|
B |-----------------------------------|---5-----------------------5~~~~---|
F#|-----------7-----------8-----------|-------8---7---8---4---6-----------|
C#|---5---------------5-----------5---|-----------------------------------|

  | PM................................|.................................  |
C#|-----------------------------------|-----------------------------------|
G#|-----------------------------------|-----------------------------------|
E |-----------------------------------|-----------------------------------|
B |-----------------------------------|-----------------------------------|
F#|-----------------------------------|-----------------------------------|
C#|---5---5---5---5---5---5---5---5---|---5---5---5---5---5---5---5---5---|

[Verse]
C#|-----------------------------------|-----------------------------------|
G#|-----------------------------------|-----------------------------------|
E |---5-----------5-------------------|---4-----------4-------------------|
B |---7-----------7-------------------|---5-----------5-------------------|
F#|-----------------------------------|-----------------------------------|
C#|-----------------------------------|-----------------------------------|

  | PM................................|.................................  |
C#|-----------------------------------|-----------------------------------|
G#|-----------------------------------|-----------------------------------|
E |-----------------------------------|-----------------------------------|
B |-----------------------------------|-----------------------------------|
F#|-----------------------------------|-----------------------------------|
C#|---5---5---5---5---5---5---5---5---|---5---5---5---5---5---5---5---5---|

C#|-----------------------------------|-----------------------------------|
G#|-----------------------------------|-----------------------------------|
E |---7-----------7--------------10---|-------9-------7-------9-----------|
B |---9-----------9--------------12---|------10-------9------10-----------|
F#|-----------------------------------|-----------------------------------|
C#|-----------------------------------|-----------------------------------|
                                 
  | PM................................|.................................  |
C#|-----------------------------------|-----------------------------------|
G#|-----------------------------------|-----------------------------------|
E |-----------------------------------|-----------------------------------|
B |-----------------------------------|-----------------------------------|
F#|-----------------------------------|-----------------------------------|
C#|---5---5---5---5---5---5---5---5---|---5---5---5---5---5---5---5---5---|

[Chorus]
C#|-----------------------------------|-----------------------------------|
G#|-----------------------------------|-----------------------------------|
E |o----------------------------------|----------------------------------o|
B |o-11------11--12--11---9-----------|----------------------------------o| ×3
F#|---9-------9--10---9---7--12--11~~~|~~~-----------10~~~~-------9~~~~---|
C#|--------------------------10---9~~~|~~~------------8~~~~-------7~~~~---|

C#|-----------------------------------|-----------------------------------|
G#|-----------------------------------|-----------------------------------|
E |-----------------------------------|-----------------------------------|
B |--11------11--12--11---9-----------|-----------------------------------|
F#|---9-------9--10---9---7--12--11~~~|~~~-----------10~~~~-----/12\------|
C#|--------------------------10---9~~~|~~~------------8~~~~-----/10\------|

[Bridge] 
C#|-----------------------------------|-----------------------------------|
G#|-----------------------------------|-----------------------------------|
E |-----------------------------------|-----------------------------------|
B |-----------7-------5---------------|---7---9-------7-------------------|
F#|---0-----------0---------------0---|-----------0-----------5---7---5---|
C#|-----------------------------------|-----------------------------------|

C#|-------------------0---------------|-------------------0---------------|
G#|---------------0-------0-----------|---------------0-------0-----------|
E |-----------6---------------6-------|-----------5---------------5-------|
B |-------6-----------------------6---|-------5-----------------------5---|
F#|---4-------------------------------|---3-------------------------------|
C#|-----------------------------------|-----------------------------------|

C#|-----------------------------------|-----------------------------------|
G#|-----------------------------------|-----------------------------------|
E |-----------------------------------|-----------0-----------------------|
B |-----------7-------5---------------|-----------------------------------|
F#|---0-----------0---------------5---|---7---9-------9---7---5---7---5---|
C#|-----------------------------------|-----------------------------------|

C#|-------------------0---------------|-------------------0---------------|
G#|---------------0-------0-----------|---------------0-------0-----------|
E |-----------6---------------6-------|-----------5---------------5-------|
B |-------6-----------------------6---|-------5-----------------------5---|
F#|---4-------------------------------|---3-------------------------------|
C#|-----------------------------------|-----------------------------------|

C#|--------|--------|--------|--------|--------|--------|--------|--------|
G#|--------|--------|-8b9----|-8------|--------|--------|--------|--------|
E |-9b10---|-9------|--------|--------|-9b10---|-9------|--------|--------|
B |--------|--------|--------|--------|--------|--------|-8b9----|-8------|
F#|--------|--------|--------|--------|--------|--------|--------|--------|
C#|--------|--------|--------|--------|--------|--------|--------|--------|
  |        |        |        |        |        |        |        |        |
C#|--------|--------|--------|--------|--------|--------|--------|--------|
G#|--------|--------|--------|--------|--------|--------|--------|--------|
E |--------|--------|--------|--------|--------|--------|--------|--------|
B |--------|--------|-5b6----|-5------|--------|--------|--------|--------|
F#|-7b8----|-7------|--------|--------|-7b8----|-7------|--------|--------|
C#|--------|--------|--------|--------|--------|--------|-6b7----|-6------|
  |        |        |        |        |        |        |        |        |
C#|--------|--------|--------|--------|--------|--------|--------|--------|
G#|--------|--------|--------|--------|--------|--------|--------|--------|
E |--------|--------|--------|--------|--------|--------|--------|--------|
B |--------|--------|--------|--------|--------|--------|--------|--------|
F#|-3b4----|-3------|-6b7----|-6------|-3b4----|-3------|--------|--------|
C#|--------|--------|--------|--------|--------|--------|-2b3----|-2------|

             PM....                             PM....
C#|-----------------------------------|-----------------------------------|
G#|-----------------------------------|-----------------------------------|
E |-----------------------------------|-----------------------------------|
B |--10-h11--11--11--11~~~~------11---|------10--10--10--10~~~~-----------|
F#|-----------------------------------|-----------------------------------|
C#|-----------------------------------|-----------------------------------|
  |          PM....                   |          PM....                   |
C#|-----------------------------------|-----------------------------------|
G#|-----------------------------------|-----------------------------------|
E |-----------------------------------|-----------------------------------|
B |-----------------------------------|-----------------------------------|
F#|--11-h13--13--13--13~~~~------13---|------11--11--11--11~~~~-----------|
C#|-----------------------------------|-----------------------------------|

             PM....                              PM....
C#|-----------------------------------|-----------------------------------|
G#|-----------------------------------|-----------------------------------|
E |--10-h11--11--11--11~~~~------11---|------10--10--10--10~~~~-----------|
B |-----------------------------------|-----------------------------------|
F#|-----------------------------------|-----------------------------------|
C#|-----------------------------------|-----------------------------------|
  |          PM....                   |          PM....                   |
C#|-----------------------------------|-----------------------------------|
G#|-----------------------------------|-----------------------------------|
E |-----------------------------------|-----------------------------------|
B |--11-h13--13--13--13~~~~------13---|------11--11--11--11~~~~-----------|
F#|-----------------------------------|-----------------------------------|
C#|-----------------------------------|-----------------------------------|

[Solo]
C#|-----------------------------------|-----------------------------------|
G#|-----------------------------------|-----------------------------------|
E |-----------------------------------|-----------------------------------|
B |---8-/10--10--10--10\--------------|-------7~~~~---------------8~~~~---|
F#|---6-/-8---8---8---8\--------------|-------5~~~~---------------6~~~~---|
C#|-----------------------------------|-----------------------------------|

C#|-----------------------------------|-----------------------------------|
G#|-----------------------------------|-----------------------------------|
E |-----------------------------------|-----------------------------------|
B |---8-/10--10--10--10\--------------|----------13-/15--13------12-------|
F#|---6-/-8---8---8---8\--------------|----------11-/13--11------10-------|
C#|-----------------------------------|-----------------------------------|

C#|-----------------------------------|-----------------------------------|
G#|-----------------------------------|-----------------------------------|
E |-----------------------------------|-----------------------------------|
B |---7---------------6---------------|---5---------------4---------------|
F#|-------8~~~~-----------7~~~~-------|-------6~~~~-----------5~~~~-------|
C#|-----------------------------------|-----------------------------------|
  |                                   |                                   |
C#|-----------------------------------|-----------------------------------|
G#|-----------------------------------|-----------------------------------|
E |-----------------------------------|-----------------------------------|
B |-----------------------------------|-----------------------------------|
F#|---8---------------7---------------|---6---------------5---------------|
C#|-------9~~~~-----------8~~~~-------|-------7~~~~-----------6~~~~-------|

[End]
C#|---0-------------------------------|-----------------------------------|
G#|---0-------------------------------|-----------------------------------|
E |---2-------------------------------|-----------------------------------|
B |---2-------------------------------|-----------------------------------|
F#|---0-------------------------------|-----------------------------------|
C#|-----------------------------------|-----------------------------------|

 Notation Legend
*******************
*
*  h  Hammer-on
*  p  Pull-off
*  b  Bend
*  r  Return
*  /  Slide up
*  ~  Vibrato
*  PM Palm Mute
*
*******************

            
            
Suggest correction
Creating personal tab
Creating personal tab
You can edit any tab online and save it as your Personal.

You can edit, replace or remove any tab part or add personal notes – all changes will be seen only by you.

Personal tabs can be accessed anytime from any device, even offline.
Learn more »
Give kudos to tab author, rate the tab!
1 2 3 4 5
comments
print report bad tab
guest
You may want to rate the tab now too:
select rating
Wanna post a correction for this tab? Suggest correction