Oops, an error
Loading. Please wait.

Total Eclipse tab

version 1
version 1

Whole song

Interactive

by Lucifer
10 views 1 this week
no commentswrite comment
1 2 3 4 5
3 more votes to show rating
add to favorites
×
Save as Personal and add changes to this tab that will be seen only by you. Learn more ›
×
You can save this tab as Personal to edit and correct it or add notes. All changes will be seen only by you. Learn more »
launch autoscroll
font size
0
reset
how to read this tab
guitar tuner
edit
Autoscroll
slow
fast
+/-
esc
set tempo
stop
---------------------------------------------------------------------------
                      “TOTAL ECLIPSE” - Lucifer
---------------------------------------------------------------------------


[Intro] / [Outro]
C#|-----------------------------------|-----------------------------------|
G#|-------------------0---------------|-----------------------------------|
E |o--------------------------0-------|---3------------------------------o|
B |o----------------------------------|----------------------------------o| ×3
F#|-----------------------------------|-----------------------------------|
C#|---0-------------------------------|-----------------------------------|


C#|-----------------------------------|-----------------------------------|
G#|-------------------0---------------|-----------------------------------|
E |---------------------------0-------|---3---------------4p2p0-----------|
B |-----------------------------------|-------------------------3~~~~-----|
F#|-----------------------------------|-----------------------------------|
C#|---0-------------------------------|-----------------------------------|


(Included the second time this section is played)
C#|-----------------------------------|-------------------0---------------|
G#|-------------------0---------------|-----------6-----------6-----------|
E |---------------------------0-------|---3-----------------------3-------|
B |-----------------------------------|-----------------------------------|
F#|-----------------------------------|-----------------------------------|
C#|---0-------------------------------|-----------------------------------|


[Verse]
C#|-----------------------------------|-----------------------------------|
G#|-----------------------------------|-----------------------------------|
E |-----------------------------------|-----------------------------------|
B |---9--------------10-------7---9~~~|~~~~---------/13------12~~~~-------|
F#|---7---------------8-------5---7~~~|~~~~---------/11------10~~~~-------|
C#|---0-------------------------------|-----------------------------------|


C#|-----------------------------------|-----------------------------------|
G#|-----------------------------------|-----------------------------------|
E |-----------------------------------|-----------------------------------|
B |---9--------------10-------7---9~~~|~~~~-------------------------------|
F#|---7---------------8-------5---7~~~|~~~~-------------------------------|
C#|---0-------------------------------|-------7---9---7---6---8~~~~-------|


C#|-----------------------------------|-----------------------------------|
G#|-----------------------------------|-----------------------------------|
E |-----------------------------------|-----------------------------------|
B |---9--------------10-------7---9~~~|~~~~---------/13------12~~~~-------|
F#|---7---------------8-------5---7~~~|~~~~---------/11------10~~~~-------|
C#|---0-------------------------------|-----------------------------------|


C#|-----------------------------------|-----------------------------------|
G#|-----------------------------------|-----------------------------------|
E |-----------------------------------|-----------------------------------|
B |---9--------------10-------7---6~~~|~~~~-----------5~~~~---5---5---7---|
F#|---7---------------8-------5---4~~~|~~~~-----------3~~~~---3---3---5---|
C#|---0-------------------------------|-----------------------------------|
  |                                   |                                   |
C#|-----------------------------------|---------------12------12--12--13--|--12~~~~|
G#|-----------------------------------|-----------------------------------|--------|
E |-----------------------------------|-----------------------------------|--------|
B |-----------------------------------|-----------------------------------|--------|
F#|-----------------------------------|-----------------------------------|--------|
C#|-----------------------------------|-----------------------------------|--------|


C#|-----------------------------------|-----------------------------------|
G#|-----------------------------------|-----------------------------------|
E |-----------------------------------|-----------------------------------|
B |---9--------------10-------7---9~~~|~~~~---------/13------12~~~~-------|
F#|---7---------------8-------5---7~~~|~~~~---------/11------10~~~~-------|
C#|---0-------------------------------|-----------------------------------|


C#|-----------------------------------|-----------------------------------|
G#|-----------------------------------|-----------------------------------|
E |-----------------------------------|-----------------------------------|
B |---9--------------10-------7---9~~~|~~~~-------------------------------|
F#|---7---------------8-------5---7~~~|~~~~-------------------------------|
C#|---0-------------------------------|-------7---9---3---5---1~~~~-------|


C#|-----------------------------------|-----------------------------------|
G#|-----------------------------------|-----------------------------------|
E |-----------------------------------|-----------------------------------|
B |---9--------------10-------7---9~~~|~~~~---------/13------12~~~~-------|
F#|---7---------------8-------5---7~~~|~~~~---------/11------10~~~~-------|
C#|---0-------------------------------|-----------------------------------|


C#|-----------------------------------|-----------------------------------|
G#|-----------------------------------|-----------------------------------|
E |-----------------------------------|-----------------------------------|
B |---9--------------10-------7---6~~~|~~~~-----------5~~~~---5---5---7---|
F#|---7---------------8-------5---4~~~|~~~~-----------3~~~~---3---3---5---|
C#|---0-------------------------------|-----------------------------------|
  |                                   |                                   |
C#|-----------------------------------|---------------12------12--12--13--|--12~~~~|
G#|-----------------------------------|-----------------------------------|--------|
E |-----------------------------------|-----------------------------------|--------|
B |-----------------------------------|-----------------------------------|--------|
F#|-----------------------------------|-----------------------------------|--------|
C#|-----------------------------------|-----------------------------------|--------|


[Chorus]
C#|-----------------------------------|-----------------------------------|
G#|-----------------------------------|-----------------------------------|
E |-----------------------------------|-----------------------------------|
B |-------------------6---9---6---8~~~|~~~~---------------8~~~~-----------|
F#|---5~~~~-----------4---7---4---6~~~|~~~~---------------6~~~~-----------|
C#|---3~~~~---------------------------|-----------------------------------|


C#|-----------------------------------|-----------------------------------|
G#|-----------------------------------|-----------------------------------|
E |-----------------------------------|-----------------------------------|
B |-------------------6---9---6---8~~~|~~~~-------------------------------|
F#|---5~~~~-----------4---7---4---6~~~|~~~~-----------4---4---6---6~~~~---|
C#|---3~~~~---------------------------|-----------------------------------|
  |                                   |                                   |
C#|-----------------------------------|-----------------------------------|
G#|-----------------------------------|-----------------------------------|
E |-----------------------------------|-----------------------------------|
B |-------------------6---9---6---8~~~|~~~~-------------------------------|
F#|---5~~~~-----------4---7---4---6~~~|~~~~-------------------------------|
C#|---3~~~~---------------------------|---------------6---6---7---7~~~~---|


C#|-----------------------------------|-----------------------------------|
G#|-----------------------------------|-----------------------------------|
E |-----------------------------------|-----------------------------------|
B |-------------------6---9---6---8~~~|~~~~---------------8~~~~-----------|
F#|---5~~~~-----------4---7---4---6~~~|~~~~---------------6~~~~-----------|
C#|---3~~~~---------------------------|-----------------------------------|


C#|-----------------------------------|-----------------------------------|
G#|-----------------------------------|-----------------------------------|
E |-----------------------------------|-----------------------------------|
B |-------------------6---9---6---8~~~|~~~~-------------------------------|
F#|---5~~~~-----------4---7---4---6~~~|~~~~-----------3---3--/6---6~~~~---|
C#|---3~~~~---------------------------|-----------------------------------|
  |                                   |                                   |
C#|-----------------------------------|-----------------------------------|
G#|-----------------------------------|-----------------------------------|
E |-----------------------------------|-----------------------------------|
B |-------------------6---9---6---8~~~|~~~~-------------------------------|
F#|---5~~~~-----------4---7---4---6~~~|~~~~-------------------------------|
C#|---3~~~~---------------------------|---------------4---4--/7---7~~~~---|


[Bridge]
C#|-----------------|-----------------|-----------------|-----------------|
G#|-----------------|-----------------|-----------------|-----------------|
E |-5-----------6---|-4---------------|-5-----------8---|-9---------------|
B |-5-----------6---|-4---------------|-5-----------8---|-9---------------|
F#|-3-----------4---|-2---------------|-3-----------6---|-7---------------|
C#|-3-----------4---|-2---------------|-3-----------6---|-7---------------|


C#|-----------------|-----------------|-----------------|-----------------|
G#|-----------------|-----------------|-----------------|-----------------|
E |-5-----------6---|-4---------------|-5-----------6---|-9---------------|
B |-5-----------6---|-4---------------|-5-----------6---|-9---------------|
F#|-3-----------4---|-2---------------|-3-----------4---|-7---------------|
C#|-3-----------4---|-2---------------|-3-----------4---|-7---------------|


C#|-----------------------------------|-----------------------------------|
G#|-----------------------------------|-----------------------------------|
E |o----------------------------------|-----------------------------------|
B |o--4---6---x-x-6---x-x-6---x-x-6---|---4---6---x-x-6---x-x-6---x-x-6---|
F#|---2---4---x-x-4---x-x-4---x-x-4---|---2---4---x-x-4---x-x-4---x-x-4---|
C#|-----------------------------------|-----------------------------------|

C#|-----------------------------------|-----------------------------------|
G#|-----------------------------------|-----------------------------------|
E |-----------------------------------|----------------------------------o|
B |---4---6---x-x-6---x-x-6---x-x-6---|-------2--------------------------o| ×4
F#|---2---4---x-x-4---x-x-4---x-x-4---|---4-------4---2---5---2-----------|
C#|-----------------------------------|---------------------------3~~~~---|


C#|-----------------------------------|-------------------0---------------|
G#|-----------------------------------|-----------------------0-----------|
E |o--3-------3---3-------6-------7---|-----------7---------------7-------|
B |o--4-------4---4-------7-------8---|---------------8-------------------|
F#|---4-------4---4-------7-------8---|-----------------------------------|
C#|---2-------2---2-------5-------6---|-----------------------------------|


C#|-----------------------------------|-------------------0---------------|
G#|-----------------------------------|-----------------------0-----------|
E |---3-------3---3-------4-------7---|-----------7---------------7------o|
B |---4-------4---4-------5-------8---|---------------8------------------o| ×2
F#|---4-------4---4-------5-------8---|-----------------------------------|
C#|---2-------2---2-------3-------6---|-----------------------------------|


  Notation Legend
***********************************
*  h  Hammer-on
*  p  Pull-off
*  /  Slide-up
*  b  Bend
*  r  Return
*  ~  Vibrato
***********************************

            
            
Suggest correction
Creating personal tab
Creating personal tab
You can edit any tab online and save it as your Personal.

You can edit, replace or remove any tab part or add personal notes – all changes will be seen only by you.

Personal tabs can be accessed anytime from any device, even offline.
Learn more »
Give kudos to tab author, rate the tab!
1 2 3 4 5
comments
print report bad tab
guest
You may want to rate the tab now too:
select rating
Wanna post a correction for this tab? Suggest correction