Oops, an error
Loading. Please wait.

Emozioni intro tab

version 2
version 2

Intro

29,003 views 27 this week
2 commentsread comments
1 2 3 4 5
x 3
add to favorites
×
Save as Personal and add changes to this tab that will be seen only by you. Learn more ›
×
You can save this tab as Personal to edit and correct it or add notes. All changes will be seen only by you. Learn more »
launch autoscroll
font size
0
reset
how to read this tab
guitar tuner
edit
Autoscroll
slow
fast
+/-
esc
set tempo
stop
Author
Title-> Emozioni (intro part)
Artist-> Lucio Battisti
Tabbed by-> Marco Vinella (mark8er)


INTRO

---0--2/3-2-0---------------------------- |
--------------3------0--------0--------0- |
--------------------0--------0--------0-- |
-------------------0--------0--------0--- | <- 2 Times
----------------------------------------- |
-----------------3--------2--------0----- |

----------------3---7-----2--------------|
---------------3-------------------------|
-----------------------------------------|
-----------------------------------------|
-----------------------------------------|
-0--2--0--2h3----------------------------|

That's all!
It sounds very nice, I love it...

For any question or rewiew please e-mail me:
sk8erboi@tiscali.it

            
            
Suggest correction
Creating personal tab
Creating personal tab
You can edit any tab online and save it as your Personal.

You can edit, replace or remove any tab part or add personal notes – all changes will be seen only by you.

Personal tabs can be accessed anytime from any device, even offline.
Learn more »
Give kudos to tab author, rate the tab!
1 2 3 4 5
comments
print report bad tab
2 comments total.
0 reply
93willy 594 Jul 07, 2009 02:19 AM

---0--2/3\2-0----------------------------|
--------------3--------------------------|
--------------------0--------------------|
-------------------0--------0--------2---|
------------------2--------0--------2----|
-----------------3--------2--------0-----|

This sounds MUCH better! (found by ear)

0 reply
v.marcucci92 10 Dec 17, 2013 07:17 AM

---0--2/3-2-0---------------------------- |
--------------3------0------------------- |
--------------------0--------0----------- |
-------------------0--------0--------2--- | <- 2 Times
------------------------------------2---- |
-----------------3--------2--------0----- |

guest
You may want to rate the tab now too:
select rating
Wanna post a correction for this tab? Suggest correction