Oops, an error
Loading. Please wait.

La Casa In Riva Al Mare tab

88 views 3 this week
no commentswrite comment
1 2 3 4 5
3 more votes to show rating
add to favorites
×
Save as Personal and add changes to this tab that will be seen only by you. Learn more ›
×
You can save this tab as Personal to edit and correct it or add notes. All changes will be seen only by you. Learn more »
launch autoscroll
font size
0
reset
how to read this tab
guitar tuner
edit
Autoscroll
slow
fast
+/-
esc
set tempo
stop
Author
Difficulty
intermediate
About this tab version
I submitted this tab elsewhere a few years ago. Now that tab has become harder to find, so I decided to re-submit it at Ultimate Guitar to give it some more visibility. I could not find other tabs of the song (only chords). Was this info helpful? Yes No
Tempo: 4/4
Metronome: 135 bpm (beats per minute)

[Intro]
e|-----0--1--1--0---------0--1--1--0--------0-----------0-----0--1--1--0----|
B|-3|---------------3--3--------------3--1--------1--3-----3--------------3-|
G|-----0--2--2--0---------0--2--2--0--------0-----------0-----0--2--2--0----|
D|-3|---------------3--3--------------3--2-----2-----3-----3--------------3-|
A|---------------------------------------------3----------------------------|
E|--------------------------------------------------------------------------|

[Verse]
   C                                     Dm7
e|---------------------------------------------------1--------1-------------|
B|-1|------------------------------------------------------------1----------|
G|------------------------------------------2-----2--------2--------2-------|
D|-2|------------------------------------0-----0--------0-------------------|
A|-3|-----------------------------------------------------------------------|
E|--------------------------------------------------------------------------|
       Dalla sua cella ...

                   G7                                     Em
e|-----------1-----------------1-----------------1-----------------------0--|
B|--------1--------------0--------0-----------0-----------------------0-----|
G|-----2--------------0-----0--------0-----0--------0--------------0--------|
D|--0-----------------------------------0--------------0--------2-----------|
A|-----------------------------------------------------------2--------------|
E|-----------------3--------------------------------------0-----------------|
                ed una casa bianca           in mezzo ...

   A6          A7       Dm                   G7                        C
e|----------1--------0-----------1-----------------------1------------------|
B|----------2-----------------3-----3-----------------0-----0---------------|
G|-------0--------0--------2-----------2-----------0-----------0------------|
D|----2--------2--------0-----------------0-----0---------------------------|
A|-0------------------------------------------------------------------3-----|
E|-------------------------------------------3------------------------------|
   aa aa                               Una donna              si ...

  Am                 Dm7            G7             C
e|-----------------------------------------------1--------|
B|-----------------------1-----1--------------0-----------|                 
G|--------0-----------2-----2-----2--------0--------------|                 
D|-----------3--2--0--------------------0-----------------|                 
A|-0------------------------------------------------3-----|                 
E|-----------------------------------3--------------------|                 
  Maria                       e' il nome ...

   C                                     Dm7
e|---------------------------------------------------1--------1-------------|
B|-1|------------------------------------------------------------1----------|
G|------------------------------------------2-----2--------2--------2-------|
D|-2|------------------------------------0-----0--------0-------------------|
A|-3|-----------------------------------------------------------------------|
E|--------------------------------------------------------------------------|
   Alla mattina lei...

                   G7                                     Em
e|-----------1-----------------1-----------------1-----------------------0--|
B|--------1--------------0--------0-----------0-----------------------0-----|
G|-----2--------------0-----0--------0-----0--------0--------------0--------|
D|--0-----------------------------------0--------------0--------2-----------|
A|-----------------------------------------------------------2--------------|
E|-----------------3--------------------------------------0-----------------|
                   e lui pensava...

   A6          A7       Dm                   G7                        C
e|----------1--------0-----------1-----------------------1------------------|
B|----------2-----------------3-----3-----------------0-----0---------------|
G|-------0--------0--------2-----------2-----------0-----------0------------|
D|----2--------2--------0-----------------0-----0---------------------------|
A|-0------------------------------------------------------------------3-----|
E|-------------------------------------------3------------------------------|
                        Tu sarai...

  Am                 Dm7            G7             C
e|-----------------------------------------------1--------|
B|-----------------------1-----1--------------0-----------|                 
G|--------0-----------2-----2-----2--------0--------------|                 
D|-----------3--2--0--------------------0-----------------|                 
A|-0------------------------------------------------3-----|                 
E|-----------------------------------3--------------------|                 
                      Una speranza...

[Chorus]
   C                          Dm  (2/4)  Dm7  (2/4)  G7   (4/4)
e|----------------------------1----------1-----------1----------------------|
B|-1--1--1--1--0--0--0--1-----3----------1-----------0----------------------|
G|-0--0--0--0--0--0--0--0-----2----------2-----------0----------------------|
D|----------------------2-----0----------0-----------0----------------------|
A|-3--3--3--3--2--2--0-------------------------------2----------------------|
E|---------------------------------------------------3----------------------|
               E sogno' la liberta'                   e s...

   C                  Am  (4/4)        Dm  (2/4)  Dm7  (2/4)
e|-0-----0-----0------0----------------1----------1-------------------------|
B|-1--1--1--1--1--1---1----------------3----------1-------------------------|
G|----0-----0-----0---2----------------2----------2-------------------------|
D|----2-----2-----2---2----------------0----------0-------------------------|
A|-3--3--3--3--3--3---0-----------------------------------------------------|
E|--------------------------------------------------------------------------|
   vi-a  vi-a  vi-a   e un a...


   G7                   C
e|-1--------------------0--|
B|-0--------------------1--|
G|-0--------------------0--|
D|-0--------------------2--|
A|-2--------------------3--|
E|-3-----------------------|
    sulla mano di Maria

[Comments]
It should be noted that, even if in the following the song
structure is the same, the guitar player tends to play more
rithmically, i.e. several notes are played at the same time where
before finger-picking was preferred.

[Legend]
Vertical bars | close to notes played at the same time mean that the
strings have to be played *almost* at the same time. When I judged it
useful, I indicated how long a certain chord has to be played (2/4 or
4/4).

   C   Dm7   G7    Em   A6   A7   Dm   Am
e|-0---1-----1-----0----1----0----1----0-----------|
B|-1---2-----0-----0----2----1----3----1-----------|
G|-0---3-----0-----0----0----0----2----2-----------|
D|-2---0-----0-----2----2----1----0----2-----------|
A|-3---------2-----2----0----0---------0-----------|
E|-----------3-----0-------------------------------|

            
            
Suggest correction
Creating personal tab
Creating personal tab
You can edit any tab online and save it as your Personal.

You can edit, replace or remove any tab part or add personal notes – all changes will be seen only by you.

Personal tabs can be accessed anytime from any device, even offline.
Learn more »
Give kudos to tab author, rate the tab!
1 2 3 4 5
comments
print report bad tab
guest
You may want to rate the tab now too:
select rating
Wanna post a correction for this tab? Suggest correction