Oops, an error
Loading. Please wait.

My Life tab

815 views 3 this week
no commentswrite comment
1 2 3 4 5
2 more votes to show rating
add to favorites
×
Save as Personal and add changes to this tab that will be seen only by you. Learn more ›
×
You can save this tab as Personal to edit and correct it or add notes. All changes will be seen only by you. Learn more »
launch autoscroll
font size
0
reset
how to read this tab
guitar tuner
edit
Autoscroll
slow
fast
+/-
esc
set tempo
stop
-------------------------------------------------------------------------------
                             My Life - Lucy Rose
-------------------------------------------------------------------------------


Tuning, DADF#AD
No capo

Tabbed by listening to the original audio and watching live performances.
If something is wrong let me know!


| \   slide down
| /   slide up
| h   hammer-on


Intro
D |------0-----|
A |------0-----|
F#|------6-----| x5
D |------0-----|
A |------7-----|
D |--7---7-----|


Verse
D |------0-----|       D |------0-----|       D |------0-----|       D |------0-----|
A |------0-----|       A |------0-----|       A |------0-----|       A |------0-----|
F#|------6-----| x3    F#|------0-----| x4    F#|------0-----| x4    F#|------1-----| x4
D |------0-----|       D |------0-----|       D |------0-----|       D |------0-----|
A |------7-----|       A |------5-----|       A |------3-----|       A |------2-----|
D |--7---7-----|       D |--5---5-----|       D |--3---3-----|       D |--2---2-----|           

Can you see what we are made of
Stars aligned when I found you, you

D |------0-----|       D |------0-----|       D |------0-----|       D |------0-----|
A |------0-----|       A |------0-----|       A |------0-----|       A |------0-----|
F#|------6-----| x4    F#|------0-----| x4    F#|------0-----| x4    F#|------1-----| x4
D |------0-----|       D |------0-----|       D |------0-----|       D |------0-----|
A |------7-----|       A |------5-----|       A |------3-----|       A |------2-----|
D |--7---7-----|       D |--5---5-----|       D |--3---3-----|       D |--2---2-----|  

Now I've taste you 
I won't move on
Cause you are what I want
Everything I want


Chorus
D |------0-------0-------0---0---0-------0-------0-------0-------0-----|
A |------0-------0-------0---0---0-------0-------0-------0-------0-----|
F#|------6-------0-------0---1-/-3-------6-------0-------0-------0-----| x2
D |------0-------0-------0---0---0-------0-------0-------0-------0-----|
A |------7-------5-------0---0---0-------7-------5-------0-------0-----|
D |--7---7---5---5---0---0---0---0---7---7---5---5---0---0---0---0-----|

This is my life
And I gave it all to you
My only life
And it's written down here for you


Verse
D |------0-----|       D |------0-----|       D |------0-----|       D |------0-----|
A |------0-----|       A |------0-----|       A |------0-----|       A |------0-----|
F#|------6-----| x4    F#|------0-----| x4    F#|------0-----| x4    F#|------1-----| x4
D |------0-----|       D |------0-----|       D |------0-----|       D |------0-----|
A |------7-----|       A |------5-----|       A |------3-----|       A |------2-----|
D |--7---7-----|       D |--5---5-----|       D |--3---3-----|       D |--2---2-----|  

Please don't tell me if I hurt you
I'm too scared to know I've done you harm, harm

D |------0-----|       D |------0-----|       D |------0-----|       D |------0-----|
A |------0-----|       A |------0-----|       A |------0-----|       A |------0-----|
F#|------6-----| x4    F#|------0-----| x4    F#|------0-----| x4    F#|------1-----| x4
D |------0-----|       D |------0-----|       D |------0-----|       D |------0-----|
A |------7-----|       A |------5-----|       A |------3-----|       A |------2-----|
D |--7---7-----|       D |--5---5-----|       D |--3---3-----|       D |--2---2-----|  

Cause now I've noticed
Since you've been gone
Waiting for return 
Hoping to have learnt


Chorus
D |------0-------0-------0---0---0-------0-------0-------0-------0-----|
A |------0-------0-------0---0---0-------0-------0-------0-------0-----|
F#|------6-------0-------0---1-/-3-------6-------0-------0-------0-----| x2
D |------0-------0-------0---0---0-------0-------0-------0-------0-----|
A |------7-------5-------0---0---0-------7-------5-------0-------0-----|
D |--7---7---5---5---0---0---0---0---7---7---5---5---0---0---0---0-----|

This is my life
And I gave it all to you
My only life
And it's written down here for you


Bridge
D |---------------------------------------------|
A |---------------------------------------------|
F#|--0---0---0---0----0---0---0---0---0---0-----| x2  Only pick the notes 
D |--0---0---0---0----0---0---0---0---0---0-----|
A |---------------------------------------------|
D |--7---7---10--10---5---3---3---3---3---2-----|

D |--0---0----0---0---0-----|
A |--0---0----0---0---0-----|
F#|--0---0----0---0---0-----| x4  Back to strumming the chords
D |--0---0----0---0---0-----|
A |--0---0----0---0---0-----|
D |--7---10---5---3---2-----|

Darling please turn around
I'm learning fast that I'm found
Darling please turn around
I'm learning fast that I'm found
Darling please turn around
I'm learning fast that I'm found


Chorus
D |--0---0---0-----|
A |--0---0---0-----|
F#|--6---0---0-----| x2  Strum each chord once
D |--0---0---0-----|
A |--7---5---0-----|
D |--7---5---0-----|

This is my life
And I gave it all to you

D |------0-------0-------0---0---0-------0-------0-------0-------0-----|
A |------0-------0-------0---0---0-------0-------0-------0-------0-----|
F#|------6-------0-------0---1-/-3-------6-------0-------0-------0-----| x2
D |------0-------0-------0---0---0-------0-------0-------0-------0-----|
A |------7-------5-------0---0---0-------7-------5-------0-------0-----|
D |--7---7---5---5---0---0---0---0---7---7---5---5---0---0---0---0-----|

My only life
And it's written down here for you
This is my life
And I gave it all to you

D |------0-------0-------0---0---0-------0-------0-----|                 
A |------0-------0-------0---0---0-------0-------0-----|  Stay on the last chord    
F#|------6-------0-------0---1-/-3-------6-------0-----|  for 3 more beats    
D |------0-------0-------0---0---0-------0-------0-----|      
A |------7-------5-------0---0---0-------7-------5-----|                 
D |--7---7---5---5---0---0---0---0---7---7---5---5-----|                 

My only life
And it's written down here for you 


Ending
D |--0---0---0---0-----|
A |--0---0---0---0-----|
F#|--0--h1-/-0-\-1-----| 
D |--0---0---0---0-----| x4  For the 4th time end on the 3rd chord
A |--0--h2-/-3-\-2-----|
D |--0--h2-/-3-\-2-----|

It's written down for you
I gave it all for you
It's written down for you



Listen to the song and watch live performances to understand the strumming pattern + 
bridge, it's not that difficult!

            
            
Suggest correction
Creating personal tab
Creating personal tab
You can edit any tab online and save it as your Personal.

You can edit, replace or remove any tab part or add personal notes – all changes will be seen only by you.

Personal tabs can be accessed anytime from any device, even offline.
Learn more »
Give kudos to tab author, rate the tab!
1 2 3 4 5
comments
print report bad tab
guest
You may want to rate the tab now too:
select rating
Wanna post a correction for this tab? Suggest correction