Oops, an error
Loading. Please wait.

Roll Out tab

version 1
version 1

Whole song

Interactive

5,316 views 1 this week
8 commentsread comments
1 2 3 4 5
x 12
add to favorites
×
Save as Personal and add changes to this tab that will be seen only by you. Learn more ›
×
You can save this tab as Personal to edit and correct it or add notes. All changes will be seen only by you. Learn more »
launch autoscroll
font size
0
reset
how to read this tab
guitar tuner
edit
Autoscroll
slow
fast
+/-
esc
set tempo
stop
Tabbed By: ????
Artist:    Ludacris
Album:     Word Of Mouf

Just Repeat This Through The Song
E-----------------------------------------------------------
B-----------------------------------------------------------
G----------2--3--2------------------------------------------
D----0--3---------------------------------------------------
A--0--------------------------------------------------------
E-----------------------------------------------------------

If there are any mistakes, please feel free to post.

            
            
Suggest correction
Creating personal tab
Creating personal tab
You can edit any tab online and save it as your Personal.

You can edit, replace or remove any tab part or add personal notes – all changes will be seen only by you.

Personal tabs can be accessed anytime from any device, even offline.
Learn more »
comments
print report bad tab
8 comments total. Showing first comments. show 1 bad comment
+1 reply
yanyanislovski 0 Feb 08, 2002 07:00 PM

almost on the money but sound really good

-2 reply
hky1148 10 Jan 26, 2003 07:00 PM

E---------------------------------------
B---------------------------------------
G------------2--3--2--------------------
D----0--3--5----------------------------
A--0------------------------------------
E---------------------------------------
there should be a 5 after the 3.

guest
Wanna post a correction for this tab? Suggest correction