Oops, an error
Loading. Please wait.

Love Me Dead tab

version 1
version 1

Whole song

Interactive

by Ludo
38,204 views 45 this week
3 commentsread comments
1 2 3 4 5
x 6
add to favorites
×
Save as Personal and add changes to this tab that will be seen only by you. Learn more ›
×
You can save this tab as Personal to edit and correct it or add notes. All changes will be seen only by you. Learn more »
launch autoscroll
font size
0
reset
how to read this tab
guitar tuner
edit
Autoscroll
slow
fast
+/-
esc
set tempo
stop
Author
Love Me Dead
Ludo
You’re Awful, I Love You.

INTRO

Guitar 1 (Tim Ferrell)
e|--------------------------------------------|
B|----6-----6-----6-----6---------------------|
G|----7-----7-----7-----7---------------------|
D|--------------------------------------------|
A|--5-----5-----5-----5-----------------------|
E|--------------------------------------------|


VERSE

Guitar 1
e|--------------------------------------------|
B|----6---6---6---6-6-------------------------|
G|----7---7---7---7-7---6-6--6----------------|  x2
D|----7---7---7---7-7---7-7--7----------------|
A|----5---5---5---5-5---7-7--7----------------|
E|----------------------5-5--5----------------|

     Love me  cancerously         like a
     Salt sour soaked in the sea         high-maintenance


e|--------------------------------------------|
B|--------------------------6--6--6--66-6-----|
G|---------------6--6-6-----7--7--7--77-7-----|
D|----5--5-5-----7--7-7-----7--7--7--77-7-----|
A|----5--5-5-----7--7-7-----5--5--5--55-5-----|
E|----3--3-3-----5--5-5-----------------------|

  Means you’re…  queen,……………and mean               (sweet snaps)


Repeat VERSE for “Kill me romantically” and for “Bitter and dumb”


CHORUS (not sure about the third and fourth chords, but work with it)

Both Guitars
e|----------------------------------------------------------|
B|----------------------------------------------------------|
G|----------------------------------------------------------|
D|--3-------------12----------7------------5--------6-------|
A|--3-------------12----------7------------5--------6-------|
E|--1-------------10----------5------------3--------4-------|

   She moves......she knows...and when.....her body is my coffin.


After second chorus, solo.

SOLO

Guitar 1 (Ferrell)
e|--------------------------------------------|
B|--------------------------------------------|
G|---7p0--7p0--7-9-7-6~-----------------------|
D|-----------------------7--7-8-7-------------|
A|--------------------------------------------|
E|--------------------------------------------|

e|--------------------------------------------|
B|--------------------------------------------|
G|---7p0--7p0--7-9-7-6~-----------------------|
D|-----------------------7-6-7-8-7-6----------|
A|------------------------------------8-7-----|
E|--------------------------------------------|

e|--------/6-5---h6--t10p6-p5----------------------------------|
B|--/6-5-------------------------------------------------------|
G|-------------------------------------------------------------|
D|-------------------------------------------------------------|
A|-------------------------------------------------------------|
E|-------------------------------------------------------------|
Tim hammers on the 6th fret
then uses his finger on
his picking hand to
hammer on the 10th
fret,then pulls off.


e|--------------------------------------------|
B|--------------------------------------------|
G|--------------------------------------------|
D|--00000000000000-6p0-8p0-9p0-11p0-----------|
A|--------------------------------------------|
E|--------------------------------------------|

e|-----------------------------11-10-11-/1818181818181818-17171717--|
B|--------------------11-10-11--------------------------------------|
G|-----------11-10-11-----------------------------------------------|
D|--11-12-11--------------------------------------------------------|
A|------------------------------------------------------------------|
E|------------------------------------------------------------------|

e|--17-13----13----------------------------------------------|
B|--------15----15-13-15-13----------------------------------|
G|--------------------------13-14-13-------------------------|
D|-----------------------------------14-13-14-14/16-14-13----|
A|-----------------------------------------------------------|
E|-----------------------------------------------------------|

e|---------------------------------------------------|
B|-------------18-17-15--18-17-15-18p17p15-(xalot)---|
G|--17-19-15-----------------------------------------|
D|---------------------------------------------------|
A|---------------------------------------------------|
E|---------------------------------------------------|

e|-----------17-16-15--/22222222~-------------|  those are 22s, not 2s
B|--18-17-15----------------------------------|
G|--------------------------------------------|
D|--------------------------------------------|
A|--------------------------------------------|
E|--------------------------------------------|

If you’re guitar doesn’t have a 22nd fret, then bend the 21st fret and it will
still be the high D note.

Repeat Verse once.
Repeat Chorus.

Ludo rocks my socks.

            
            
Suggest correction
Creating personal tab
Creating personal tab
You can edit any tab online and save it as your Personal.

You can edit, replace or remove any tab part or add personal notes – all changes will be seen only by you.

Personal tabs can be accessed anytime from any device, even offline.
Learn more »
comments
print report bad tab
3 comments total.
0 reply
xLoneMythx 31 Jan 24, 2008 06:45 AM

The chorus should be something like this. There are two different
parts
E|------------------------
B|------------------------
G|------------------------
D|---3---12---8---5---6---
A
|---3---12---8---5---6---
E|---1---10---6---3---4---

E|--------------------------------
B|------------------------6
-------
G|------------------------7---6---
D|---3---12---7---8---8---7---7---
A|---3---12---7---8---8---5---7---
E|-
--1---10---5---6---6-------5---

something like that

0 reply
xLoneMythx 31 Jan 24, 2008 06:46 AM

uhh srry about that getting out of line, but you should be able to understand it

0 reply
alwarnecke 114 Feb 03, 2008 06:30 PM

alright, solo needs some work. also, lead and rhythm (Volpe and Ferrel) are different on the chorus

guest
You may want to rate the tab now too:
select rating
Wanna post a correction for this tab? Suggest correction