Oops, an error
Loading. Please wait.

Love Me Dead tab

version 4
version 4

Whole song

Interactive

by Ludo
1,738 views 1 this week
no commentswrite comment
1 2 3 4 5
3 more votes to show rating
add to favorites
×
Save as Personal and add changes to this tab that will be seen only by you. Learn more ›
×
You can save this tab as Personal to edit and correct it or add notes. All changes will be seen only by you. Learn more »
launch autoscroll
font size
0
reset
how to read this tab
guitar tuner
edit
Autoscroll
slow
fast
+/-
esc
set tempo
stop
Author
sorry, i put this under guitar tabs, its a bass tab obviously

artist: ludo
song: love me dead

Guitar intro

Verse 1:
g|------------------------------|
d|-----------3------------------|
a|-5---5---5---5-----------4-5-7|
e|---------------5---5---5------| x2

g|--------------------------|
d|-------5-3---/7---7-7-5---|
a|-----------5------------7-|
e|-3---3--------------------| x1

g|---------------------------------|
d|---------------------------------|
a|-5---5---5---5---5---5---3---3---|
e|---------------------------------| x1

Chorus:
g|-----------------------------------------------------------------|
d|-------------------------7-5-4-5---------------------------------|
a|-----------------5-5-5-5---------1-1-1-1-1-1-1-1-----------------|
e|-1-1-1-1-1-3-4-5---------------------------------3-3-3-3-3-3-4-4-| x1

g|-----------------------------------------------------------------|
d|-----------------------------------------------------------------|
a|-----------------5-5-5-5-5-5-5-5---------------------------------|
e|-1-1-1-1-1-3-4-5-----------------5-5-5-5-5-5-5-5-6-6-6-6-6-6-6-6-| x1

After chorus:
g|------------------------------|
d|-----------3------------------|
a|-5---5---5---5-----------4-5-7|
e|---------------5---5---5------| x2

Verse 2:
g|------------------------------|
d|-----------3------------------|
a|-5---5---5---5-----------4-5-7|
e|---------------5---5---5------| x2

g|--------------------------|
d|-------5-3---/7---7-7-5---|
a|-----------5------------7-|
e|-3---3--------------------| x1

g|---------------------------------|
d|---------------------------------|
a|-5---5---5---5---5---5---5---5---|
e|---------------------------------| x1

g|------------------------------|
d|-----------3------------------|
a|-5---5---5---5-----------4-5-7|
e|---------------5---5---5------| x2

g|--------------------------|
d|-------5-3---/7---7-7-5---|
a|-----------5------------7-|
e|-3---3--------------------| x1

g|---------------------------------|
d|---------------------------------|
a|-5---5---5---5---5---5---3---3---|
e|---------------------------------| x1

Chorus 2:
g|-----------------------------------------------------------------|
d|-------------------------7-5-4-5---------------------------------|
a|-----------------5-5-5-5---------1-1-1-1-1-1-1-1-----------------|
e|-1-1-1-1-1-3-4-5---------------------------------3-3-3-3-3-3-4-4-| x1

g|-----------------------------------------------------------------|
d|-----------------------------------------------------------------|
a|-----------------5-5-5-5-5-5-5-5---------------------------------|
e|-1-1-1-1-1-3-4-5-----------------5-5-5-5-5-5-5-5-6-6-6-6-6-6-6-6-| x1

Solo (the verse is what it sounds most like, but just mess around with it)
g|------------------------------|
d|-----------3------------------|
a|-5---5---5---5-----------4-5-7|
e|---------------5---5---5------| x4

g|--------------------------|
d|-------5-3---/7---7-7-5---|
a|-----------5------------7-|
e|-3---3--------------------| x1

g|---------------------------------|
d|---------------------------------|
a|-5---5---5---5---5---5---5---5---|
e|---------------------------------| x1

g|------------------------------|
d|-----------3------------------|
a|-5---5---5---5-----------4-5-7|
e|---------------5---5---5------| x3

g|-----------------------------------------|
d|-----------------8-7-5-7-5---5-----------|
a|-5---5---5---5-------------8---8-7-8-7-0-|
e|-----------------------------------------| x1

g|-----|
d|-----|
a|-5---|
e|-----| x1

Break

Interlude:
g|------------------------------|
d|-----------3------------------|
a|-5---5---5---5-----------4-5-7|
e|---------------5---5---5------| x2

g|--------------------------|
d|-------5-3---/7---7-7-5---|
a|-----------5------------7-|
e|-3---3--------------------| x1

g|---------------------------------|
d|---------------------------------|
a|-5---5---5---5---5---5---3---3---|
e|---------------------------------| x1

Chorus 3:
g|-----------------------------------------------------------------|
d|-------------------------7-5-4-5---------------------------------|
a|-----------------5-5-5-5---------1-1-1-1-1-1-1-1-----------------|
e|-1-1-1-1-1-3-4-5---------------------------------3-3-3-3-3-3-4-4-| x1

g|-----------------------------------------------------------------|
d|-----------------------------------------------------------------|
a|-----------------5-5-5-5-5-5-5-5---------------------------------|
e|-1-1-1-1-1-3-4-5-----------------5-5-5-5-5-5-5-5-6-6-6-6-6-6-6-6-| x1

Outro:
g|------------------------------|
d|-----------3------------------|
a|-5---5---5---5-----------4-5-7|
e|---------------5---5---5------| x4

g|---------------------------------|
d|---------------------------------|
a|-5---5---5---5---5---5---5---5---|
e|---------------------------------| x1

g|---------------------------------|
d|---------------------------------|
a|-5~------------------------------|
e|-----------------5~--------------| x1

g|-----|
d|-----|
a|-5---|
e|-----|

Key:
/-slide
~-hold


            
            
Suggest correction
Creating personal tab
Creating personal tab
You can edit any tab online and save it as your Personal.

You can edit, replace or remove any tab part or add personal notes – all changes will be seen only by you.

Personal tabs can be accessed anytime from any device, even offline.
Learn more »
Give kudos to tab author, rate the tab!
1 2 3 4 5
comments
print report bad tab
guest
You may want to rate the tab now too:
select rating
Wanna post a correction for this tab? Suggest correction