Oops, an error
Loading. Please wait.

Topeka tab

version 2
version 2

Whole song

  • A lot of the 'Topeka' tabs have insisted on using ... Show more
by Ludo
28 views 1 this week
no commentswrite comment
1 2 3 4 5
3 more votes to show rating
add to favorites
×
Save as Personal and add changes to this tab that will be seen only by you. Learn more ›
×
You can save this tab as Personal to edit and correct it or add notes. All changes will be seen only by you. Learn more »
launch autoscroll
font size
0
reset
how to read this tab
guitar tuner
edit
Autoscroll
slow
fast
+/-
esc
set tempo
stop
About this tab version
A lot of the 'Topeka' tabs have insisted on using capos and basic chords. That being said, this is the studio version. Tabbed out exactly as they play it live. Was this info helpful? Yes No
[Intro]
          I found God in a catalytic converter / In Topeka on a Monday night.
e|---------------------------0-----------------------4----------2------0--------|
B|---------------------------0-----------------------4----------2------0--------|
G|--4-4-4--------------------0-----------------------5----------3------0--------|
D|--4-4-4--------------------2-----------------------6----------4------2--------|
A|--2-2-2--------------------2-----------------------6----------4------2--------|
E|---------------------------------------------------4----------2---------------|

[Verse 1]
     I taste blood every time I think of summer / If that's true, I'm in for quite a treat
e|------------------------0----------------------------------4----------------2-------0-------|
B|------------------------0----------------------------------4----------------2-------0-------|
G|--4---------------------0----------------------------------5----------------3-------0-------|
D|--4---------------------2----------------------------------6----------------4-------2-------|
A|--2---------------------2----------------------------------6----------------4-------2-------|
E|-----------------------------------------------------------4----------------2---------------|

 Cause I'm beggin' for the sun in a mid-Missouri winter / Waitin' desperately to get out of town.
e|-----------7---------------------------7-------------------------4-------------6----------7----|
B|-----------7---------------------------7-------------------------4-------------6----------7----|
G|-----------8---------------------------9-------------------------5-------------7----------9----|
D|-----------9---------------------------9-------------------------6-------------6----------9----|
A|-----------9---------------------------7-------------------------6-------------8----------7----|
E|-----------7---------------------------7-------------------------4-------------6----------7----|

 No, you can't keep a good man down.
e|--------4------------2--------0-------|
B|--------4------------2--------0-------|
G|--------5------------3--------0-------|
D|--------6------------4--------2-------|
A|--------6------------4--------2-------|
E|--------4------------2----------------|


[Verse 2]
    You've         obsess           Think    Away     Past?      As
e|------------------0-0-0-0-0-0-0-0--4-4-4-4--2-2-2-2--0-0-0-0-0-0-0-0--|
B|------------------0-0-0-0-0-0-0-0--4-4-4-4--2-2-2-2--0-0-0-0-0-0-0-0--|
G|-4-4-4-4-4-4-4-4--0-0-0-0-0-0-0-0--5-5-5-5--3-3-3-3--0-0-0-0-0-0-0-0--|
D|-4-4-4-4-4-4-4-4--2-2-2-2-2-2-2-2--6-6-6-6--4-4-4-4--2-2-2-2-2-2-2-2--|
A|-2-2-2-2-2-2-2-2--2-2-2-2-2-2-2-2--6-6-6-6--4-4-4-4--2-2-2-2-2-2-2-2--|
E|-----------------------------------4-4-4-4--2-2-2-2-------------------|

    yourself       Make             Consider  Might  Found
e|-7-7-7-7-7-7-7-7--7-7-7-7-7-7-7-7--4-4-4-4--6-6-6-6--7-7-7-7-7-7-7-7--|
B|-7-7-7-7-7-7-7-7--7-7-7-7-7-7-7-7--4-4-4-4--6-6-6-6--7-7-7-7-7-7-7-7--|
G|-8-8-8-8-8-8-8-8--9-9-9-9-9-9-9-9--5-5-5-5--5-5-5-5--9-9-9-9-9-9-9-9--|
D|-9-9-9-9-9-9-9-9--9-9-9-9-9-9-9-9--6-6-6-6--6-6-6-6--9-9-9-9-9-9-9-9--|
A|-9-9-9-9-9-9-9-9--7-7-7-7-7-7-7-7--6-6-6-6--8-8-8-8--7-7-7-7-7-7-7-7--|
E|-7-7-7-7-7-7-7-7--7-7-7-7-7-7-7-7--4-4-4-4--6-6-6-6--7-7-7-7-7-7-7-7--|

  You      Good          Now~~~~~~~
e|-4-4-4-4--2-2-2-2--0-0-0-0-0-0-0-0-0-0-0-0-0-0-0-0--|
B|-4-4-4-4--2-2-2-2--0-0-0-0-0-0-0-0-0-0-0-0-0-0-0-0--|
G|-5-5-5-5--3-3-3-3--1-1-1-1-1-1-1-1-0-0-0-0-0-0-0-0--|
D|-6-6-6-6--4-4-4-4--2-2-2-2-2-2-2-2-2-2-2-2-2-2-2-2--|
A|-6-6-6-6--4-4-4-4--2-2-2-2-2-2-2-2-2-2-2-2-2-2-2-2--|
E|-4-4-4-4--2-2-2-2-----------------------------------|


[Chorus]
   I               Catalytic        Topeka   Monday             Every
e|------------------0-0-0-0-0-0-0-0--4-4-4-4--2-2-2-2--0-0-0-0-0-0-0-0--|
B|------------------0-0-0-0-0-0-0-0--4-4-4-4--2-2-2-2--0-0-0-0-0-0-0-0--|
G|-4-4-4-4-4-4-4-4--0-0-0-0-0-0-0-0--5-5-5-5--3-3-3-3--0-0-0-0-0-0-0-0--|
D|-4-4-4-4-4-4-4-4--2-2-2-2-2-2-2-2--6-6-6-6--4-4-4-4--2-2-2-2-2-2-2-2--|
A|-2-2-2-2-2-2-2-2--2-2-2-2-2-2-2-2--6-6-6-6--4-4-4-4--2-2-2-2-2-2-2-2--|
E|-----------------------------------4-4-4-4--2-2-2-2-------------------|

   Saint          Sinner            Know     Hangin'   Around      No
e|-7-7-7-7-7-7-7-7--7-7-7-7-7-7-7-7--4-4-4-4--6-6-6-6--7-7-7-7-7-7-7-7--|
B|-7-7-7-7-7-7-7-7--7-7-7-7-7-7-7-7--4-4-4-4--6-6-6-6--7-7-7-7-7-7-7-7--|
G|-8-8-8-8-8-8-8-8--9-9-9-9-9-9-9-9--5-5-5-5--5-5-5-5--9-9-9-9-9-9-9-9--|
D|-9-9-9-9-9-9-9-9--9-9-9-9-9-9-9-9--6-6-6-6--6-6-6-6--9-9-9-9-9-9-9-9--|
A|-9-9-9-9-9-9-9-9--7-7-7-7-7-7-7-7--6-6-6-6--8-8-8-8--7-7-7-7-7-7-7-7--|
E|-7-7-7-7-7-7-7-7--7-7-7-7-7-7-7-7--4-4-4-4--6-6-6-6--7-7-7-7-7-7-7-7--|

   You      a         down~~~~~~~~~~
e|-4-4-4-4--2-2-2-2--0-0-0-0-0-0-0-0-0-0-0-0-0-0-0-0--|
B|-4-4-4-4--2-2-2-2--0-0-0-0-0-0-0-0-0-0-0-0-0-0-0-0--|
G|-5-5-5-5--3-3-3-3--1-1-1-1-1-1-1-1-0-0-0-0-0-0-0-0--|
D|-6-6-6-6--4-4-4-4--2-2-2-2-2-2-2-2-2-2-2-2-2-2-2-2--|
A|-6-6-6-6--4-4-4-4--2-2-2-2-2-2-2-2-2-2-2-2-2-2-2-2--|
E|-4-4-4-4--2-2-2-2-----------------------------------|


[Break]
e|--------------------------------------------------------------------------|
B|--------------------------------------------------------------------------|
G|-9-9-9-9-9-9-9-9-9-9-9-9-9-9-9-9-13-13-13-13-13-13-13-13-9-9-9-9-9-9-9-9--|
D|-9-9-9-9-9-9-9-9-9-9-9-9-9-9-9-9-13-13-13-13-13-13-13-13-9-9-9-9-9-9-9-9--|
A|-7-7-7-7-7-7-7-7-7-7-7-7-7-7-7-7-11-11-11-11-11-11-11-11-7-7-7-7-7-7-7-7--|
E|-7-7-7-7-7-7-7-7-7-7-7-7-7-7-7-7-11-11-11-11-11-11-11-11-7-7-7-7-7-7-7-7--|


[Bridge]
 From              count             The         must've     (All)
e|-7-7-7-7-7-7-7-7--7-7-7-7-7-7-7-7---------------------------7-7-7-7-7-7-7-7--|
B|-7-7-7-7-7-7-7-7--7-7-7-7-7-7-7-7---------------------------7-7-7-7-7-7-7-7--|
G|-8-8-8-8-8-8-8-8--9-9-9-9-9-9-9-9--13-13-13-13-13-13-13-13--9-9-9-9-9-9-9-9--|
D|-9-9-9-9-9-9-9-9--9-9-9-9-9-9-9-9--13-13-13-13-13-13-13-13--9-9-9-9-9-9-9-9--|
A|-9-9-9-9-9-9-9-9--7-7-7-7-7-7-7-7--11-11-11-11-11-11-11-11--7-7-7-7-7-7-7-7--|
E|-7-7-7-7-7-7-7-7--7-7-7-7-7-7-7-7--11-11-11-11-11-11-11-11--7-7-7-7-7-7-7-7--|

 All                current          And          infected.
e|-7-7-7-7-7-7-7-7--7-7-7-7-7-7-7-7---------------------------7-7-7-7-7-7-7-7--|
B|-7-7-7-7-7-7-7-7--7-7-7-7-7-7-7-7---------------------------7-7-7-7-7-7-7-7--|
G|-8-8-8-8-8-8-8-8--9-9-9-9-9-9-9-9--13-13-13-13-13-13-13-13--9-9-9-9-9-9-9-9--|
D|-9-9-9-9-9-9-9-9--9-9-9-9-9-9-9-9--13-13-13-13-13-13-13-13--9-9-9-9-9-9-9-9--|
A|-9-9-9-9-9-9-9-9--7-7-7-7-7-7-7-7--11-11-11-11-11-11-11-11--7-7-7-7-7-7-7-7--|
E|-7-7-7-7-7-7-7-7--7-7-7-7-7-7-7-7--11-11-11-11-11-11-11-11--7-7-7-7-7-7-7-7--|


[Chorus]
   I                catalytic        Topeka   Monday night
e|------------------0-0-0-0-0-0-0-0--4-4-4-4--2-2-2-2--0-0-0-0-0-0-0-0--|
B|------------------0-0-0-0-0-0-0-0--4-4-4-4--2-2-2-2--0-0-0-0-0-0-0-0--|
G|-4-4-4-4-4-4-4-4--0-0-0-0-0-0-0-0--5-5-5-5--3-3-3-3--0-0-0-0-0-0-0-0--|
D|-4-4-4-4-4-4-4-4--2-2-2-2-2-2-2-2--6-6-6-6--4-4-4-4--2-2-2-2-2-2-2-2--|
A|-2-2-2-2-2-2-2-2--2-2-2-2-2-2-2-2--6-6-6-6--4-4-4-4--2-2-2-2-2-2-2-2--|
E|-----------------------------------4-4-4-4--2-2-2-2-------------------|

   I                catalytic        Topeka   Monday    night~~~~~~~~~             
e|-7-7-7-7-7-7-7-7--7-7-7-7-7-7-7-7--4-4-4-4--6-6-6-6--7-7-7-7-7-7-7-7-7-7-7-7-7-7-7-7--|
B|-7-7-7-7-7-7-7-7--7-7-7-7-7-7-7-7--4-4-4-4--6-6-6-6--7-7-7-7-7-7-7-7-7-7-7-7-7-7-7-7--|
G|-8-8-8-8-8-8-8-8--9-9-9-9-9-9-9-9--5-5-5-5--5-5-5-5--9-9-9-9-9-9-9-9-9-9-9-9-9-9-9-9--|
D|-9-9-9-9-9-9-9-9--9-9-9-9-9-9-9-9--6-6-6-6--6-6-6-6--9-9-9-9-9-9-9-9-9-9-9-9-9-9-9-9--|
A|-9-9-9-9-9-9-9-9--7-7-7-7-7-7-7-7--6-6-6-6--8-8-8-8--7-7-7-7-7-7-7-7-7-7-7-7-7-7-7-7--|
E|-7-7-7-7-7-7-7-7--7-7-7-7-7-7-7-7--4-4-4-4--6-6-6-6--7-7-7-7-7-7-7-7-7-7-7-7-7-7-7-7--|


[Outro]
   Every            Sinner           Every            Sinner     
e|------------------0-0-0-0-0-0-0-0--7-7-7-7-7-7-7-7--7-7-7-7-7-7-7-7--|
B|------------------0-0-0-0-0-0-0-0--7-7-7-7-7-7-7-7--7-7-7-7-7-7-7-7--|
G|-4-4-4-4-4-4-4-4--0-0-0-0-0-0-0-0--8-8-8-8-8-8-8-8--9-9-9-9-9-9-9-9--|
D|-4-4-4-4-4-4-4-4--2-2-2-2-2-2-2-2--9-9-9-9-9-9-9-9--9-9-9-9-9-9-9-9--|
A|-2-2-2-2-2-2-2-2--2-2-2-2-2-2-2-2--9-9-9-9-9-9-9-9--7-7-7-7-7-7-7-7--|
E|-----------------------------------7-7-7-7-7-7-7-7--7-7-7-7-7-7-7-7--|

   Every            Sinner           Every            Sinner          Every
e|------------------0-0-0-0-0-0-0-0--7-7-7-7-7-7-7-7--7-7-7-7-7-7-7-7-7-7-7-7-7-7-7-7--|
B|------------------0-0-0-0-0-0-0-0--7-7-7-7-7-7-7-7--7-7-7-7-7-7-7-7-7-7-7-7-7-7-7-7--|
G|-4-4-4-4-4-4-4-4--0-0-0-0-0-0-0-0--8-8-8-8-8-8-8-8--9-9-9-9-9-9-9-9-9-9-9-9-9-9-9-9--|
D|-4-4-4-4-4-4-4-4--2-2-2-2-2-2-2-2--9-9-9-9-9-9-9-9--9-9-9-9-9-9-9-9-9-9-9-9-9-9-9-9--|
A|-2-2-2-2-2-2-2-2--2-2-2-2-2-2-2-2--9-9-9-9-9-9-9-9--7-7-7-7-7-7-7-7-7-7-7-7-7-7-7-7--|
E|-----------------------------------7-7-7-7-7-7-7-7--7-7-7-7-7-7-7-7-7-7-7-7-7-7-7-7--|

End
e|---|
B|---|
G|---|
D|-4-|
A|-4-|
E|-2-|

************************************

| ~  Vibrato

************************************

            
            
Suggest correction
Creating personal tab
Creating personal tab
You can edit any tab online and save it as your Personal.

You can edit, replace or remove any tab part or add personal notes – all changes will be seen only by you.

Personal tabs can be accessed anytime from any device, even offline.
Learn more »
Give kudos to tab author, rate the tab!
1 2 3 4 5
comments
print report bad tab
guest
You may want to rate the tab now too:
select rating
Wanna post a correction for this tab? Suggest correction