Oops, an error
Loading. Please wait.

Le Onde tab

version 1
version 1

Whole song

22,240 views 42 this week
3 commentsread comments
1 2 3 4 5
1 last vote to show rating
add to favorites
×
Save as Personal and add changes to this tab that will be seen only by you. Learn more ›
×
You can save this tab as Personal to edit and correct it or add notes. All changes will be seen only by you. Learn more »
launch autoscroll
font size
0
reset
how to read this tab
guitar tuner
edit
Autoscroll
slow
fast
+/-
esc
set tempo
stop
Drop D tuning
bpm: 120

 (4/4)
E|-------------|-------------|-------------|-------------|
B|-------------|-------------|-------------|-------------|
G|-------------|-------------|-------------|-------------|
D|-------------|-------------|-------------|-------------|
A|-------------|-------------|-------------|-------------|
D|-------------|-------------|-------------|-------------|

(Gtr 1)
   E E E E E E   E E E E E E   E E E E E E   E E E E E E
E|-----------2-|-----------2-|-----------2-|-----------2-|
B|-------2-3---|-------2-3---|-------2-3---|-------2-3---|
G|-----4-------|-----4-------|-----4-------|-----4-------|
D|---4---------|---4---------|---0---------|---2---------|
A|-2-----------|-2-----------|-------------|-0-----------|
D|-------------|-------------|-5-----------|-------------|

E|-------------|-------------|-------------|--------------|
B|-------------|-------------|-------------|--------------|
G|-------------|-------------|-------------|--------------|
D|-------------|-------------|-------------|--------------|
A|-------------|-------------|-------------|--------------|
D|-------------|-------------|-------------|--------------|

(Gtr 1)
   E E E E E E   E E E E E E   E E E E E E   E E E E E E
E|-----------2-|-----------2-|-----------2-|-----------2--|
B|-------2-3---|-------2-3---|-------2-3---|-------2-3----|
G|-----4-------|-----4-------|-----4-------|-----4--------|
D|---4---------|---4---------|---0---------|---2----------|
A|-2-----------|-2-----------|-------------|-0------------|
D|-------------|-------------|-5-----------|--------------|

(Gtr 1)
    E E E  E   E E    E E E  E   E E
E|-10---9----------|-10---9----------|
B|----7-------10---|----7-------10---|
G|---------9-----7-|---------9-----7-|
D|-----------------|-----------------|
A|-----------------|-----------------|
D|-----------------|-----------------|

(Gtr 2)
    E E E +Q.         E E E +Q.
E|-----------------|-----------------|
B|-----------------|-----------------|
G|------4-(4)------|------4-(4)------|
D|----4------------|----4------------|
A|--2--------------|--2--------------|
D|-----------------|-----------------|

   E E  E  E  E E   Q   +Q    +Q
E|-7--------------|-----------------|--------------|
B|-----10-----8---|-7---(7)---(7)---|--------------|
G|----------------|-----------------|--------------|
D|---0-----0----0-|-----------------|--------------|
A|----------------|-----------------|--------------|
D|----------------|-----------------|--------------|

   E E  E +Q.       E E  E  E  E  E   E E E E E E
E|----------------|---------------2-|-----------2--|
B|----------------|---------2--3----|-------2-3----|
G|------4-(4)-----|------4----------|-----4--------|
D|---0------------|---2-------------|---4----------|
A|----------------|-0---------------|-2------------|
D|-5--------------|-----------------|--------------|

    E E E  E   E E    E E E  E   E E
E|-10---9----------|-10---9----------|
B|----7-------10---|----7-------10---|
G|---------9-----7-|---------9-----7-|
D|-----------------|-----------------|
A|-----------------|-----------------|
D|-----------------|-----------------|

    E E E +Q.         E E E +Q.
E|-----------------|-----------------|
B|-----------------|-----------------|
G|------4-(4)------|------4-(4)------|
D|----4------------|----4------------|
A|--2--------------|--2--------------|
D|-----------------|-----------------|

   E E  E  E  E E   Q   +Q    +Q
E|-9---10-----9---|-7---(7)---(7)---|--------------|
B|----------------|-----------------|--------------|
G|----------------|-----------------|--------------|
D|---0-----0----0-|-----------------|--------------|
A|----------------|-----------------|--------------|
D|----------------|-----------------|--------------|

   E E  E +Q.       E E  E  E  E  E   E E E E E E
E|----------------|---------------2-|-----------2--|
B|----------------|---------2--3----|-------2-3----|
G|------4-(4)-----|------4----------|-----4--------|
D|---0------------|---2-------------|---4----------|
A|----------------|-0---------------|-2------------|
D|-5--------------|-----------------|--------------|

    E E E  E   E E    E E E  E   E E
E|-10---9----------|-10---9----------|
B|----7-------10---|----7-------10---|
G|---------9-----7-|---------9-----7-|
D|-----------------|-----------------|
A|-----------------|-----------------|
D|-----------------|-----------------|

    E E E +Q.         E E E +Q.
E|-----------------|-----------------|
B|-----------------|-----------------|
G|------4-(4)------|------7-(7)------|
D|----4------------|----7------------|
A|--2--------------|--5--------------|
D|-----------------|-----------------|

   E E  E E E  E    Q     +Q    +Q
E|-7--------------|-------------------|----------------|
B|-----10---8-----|-7-----(7)---(7)---|----------------|
G|----------------|-------------------|----------------|
D|---0----0----0--|-------------------|----------------|
A|----------------|-------------------|----------------|
D|----------------|-------------------|----------------|

   E E  E E E +E    E E E  E  E +E      E E E E E +E
E|----------------|-------------------|----------------|
B|--------2-3-(3)-|-------------------|----------------|
G|------4---------|-------------------|----------------|
D|---0------------|-----0--2--4-(4)---|-----0-2-4-(4)--|
A|----------------|---0---------------|---0------------|
D|-5--------------|-0-----------------|-0--------------|

    E E E  E   E E    E E E  E   E E
E|-10---9----------|-10---9----------|
B|----7-------10---|----7-------10---|
G|---------9-----7-|---------9-----7-|
D|-----------------|-----------------|
A|-----------------|-----------------|
D|-----------------|-----------------|

    E E E +Q.         E E E +Q.
E|-----------------|-----------------|
B|-----------------|-----------------|
G|------4-(4)------|------7-(7)------|
D|----4------------|----7------------|
A|--2--------------|--5--------------|
D|-----------------|-----------------|

   E E  E E E  E    Q   +Q    +Q
E|-9---10---9-----|-7---(7)---(7)---|--------------|
B|----------------|-----------------|--------------|
G|----------------|-----------------|--------------|
D|---0----0----0--|-----------------|--------------|
A|----------------|-----------------|--------------|
D|----------------|-----------------|--------------|

   E E  E E E +E    E E  E  E  E  E   E E E E E E
E|----------------|---------------2-|-----------2--|
B|--------2-3-(3)-|---------2--3----|-------2-3----|
G|------4---------|------4----------|-----4--------|
D|---0------------|---2-------------|---4----------|
A|----------------|-0---------------|-2------------|
D|-5--------------|-----------------|--------------|

    E  E  E  E   E E    E  E  E  E   E E    E  E  E  E   E E
E|-14----12-----10---|-14----12-----10---|-14----12-----10---|
B|----10-----8-----7-|----10-----8-----7-|----10-----8-----7-|
G|-------------------|-------------------|-------------------|
D|-------------------|-------------------|-------------------|
A|-------------------|-------------------|-------------------|
D|-------------------|-------------------|-------------------|

    E  E  E +Q.         E  E  E +Q.         E  E  E +Q.
E|-------------------|-------------------|-------------------|
B|-------------------|-------------------|-------------------|
G|--------7-(7)------|--------2-(2)------|--------4-(4)------|
D|-----7-------------|-----2-------------|-----4-------------|
A|--5----------------|--0----------------|--2----------------|
D|-------------------|-------------------|-------------------|

    E  E  E  E   E E    E  E  E  E   E E
E|-14----15-----12---|-14----12-----10----|
B|----10----12-----8-|----10-----8-----7--|
G|-------------------|--------------------|
D|-------------------|--------------------|
A|-------------------|--------------------|
D|-------------------|--------------------|

    E  E  E +Q.         E  E  E +Q.
E|-------------------|--------------------|
B|-------------------|--------------------|
G|--------4-(4)------|--------7-(7)-------|
D|-----0-------------|-----7--------------|
A|-------------------|--5-----------------|
D|--5----------------|--------------------|

    E E  E  E  E E   Q   +Q    +Q
E|-12---10-----9---|-7---(7)---(7)---|-------------|
B|----8-----7------|-----------------|-------------|
G|---------------9-|-----------------|-------------|
D|-----------------|-----------------|-------------|
A|-----------------|-----------------|-------------|
D|-----------------|-----------------|-------------|

    E E  E +Q.       E E  E  E  E  E   E E E E E E
E|-----------------|---------------2-|-------------|
B|-----------------|---------2--3----|-------------|
G|-------2-(2)-----|------4----------|-----------2-|
D|----2------------|---4-------------|-----0-2-4---|
A|--0--------------|-2---------------|---0---------|
D|-----------------|-----------------|-0-----------|

    E  E  E  E   E E    E  E  E  E   E E    E  E  E  E   E E
E|-14----12-----10---|-14----12-----10---|-14----12-----10---|
B|----10-----8-----7-|----10-----8-----7-|----10-----8-----7-|
G|-------------------|-------------------|-------------------|
D|-------------------|-------------------|-------------------|
A|-------------------|-------------------|-------------------|
D|-------------------|-------------------|-------------------|

    E  E  E +Q.         E  E  E +Q.         E  E  E +Q.
E|-------------------|-------------------|-------------------|
B|-------------------|-------------------|-------------------|
G|--------7-(7)------|--------2-(2)------|--------4-(4)------|
D|-----7-------------|-----2-------------|-----4-------------|
A|--5----------------|--0----------------|--2----------------|
D|-------------------|-------------------|-------------------|

    E  E  E  E   E  E    E  E  E  E   E E
E|-14----15-----17----|-14----12-----10----|
B|----10----12-----15-|----10-----8-----7--|
G|--------------------|--------------------|
D|--------------------|--------------------|
A|--------------------|--------------------|
D|--------------------|--------------------|

    E  E  E +Q.          E  E  E +Q.
E|--------------------|--------------------|
B|--------------------|--------------------|
G|--------4-(4)-------|--------7-(7)-------|
D|-----0--------------|-----7--------------|
A|--------------------|--5-----------------|
D|--5-----------------|--------------------|

    E E  E E E  E    Q   +Q    +Q
E|-12---10---9-----|-7---(7)---(7)---|-----------------|
B|----8----7-------|-----------------|-----------------|
G|--------------9--|-----------------|-----------------|
D|-----------------|-----------------|-----------------|
A|-----------------|-----------------|-----------------|
D|-----------------|-----------------|-----------------|

    E E  E E E +E    E E  E  E  E  E   E E E E E E +E
E|-----------------|-----------------|-----------------|
B|---------2-3-(3)-|---------------3-|---------0-3-(3)-|
G|-------2---------|---------0--2----|-------2---------|
D|----2------------|------3----------|-----5-----------|
A|--0--------------|---3-------------|---5-------------|
D|-----------------|-3---------------|-5---------------|

    E  E  E  E  E  E     E  E  E  E  E  E     E  E  E  E  E  E
E|-22----21-----------|-22----21-----------|-19-----------------|
B|----19-------22-----|----19-------22-----|-------22----20-----|
G|----------21----19--|----------21----19--|--------------------|
D|--------------------|--------------------|----17----17----17--|
A|--------------------|--------------------|--------------------|
D|--------------------|--------------------|--------------------|

    E  E  E  E  E +E     E  E  E  E  E +E     E  E  E  E  E +E
E|--------------------|--------------------|--------------------|
B|--------------------|-----------2--3-(3)-|--------------------|
G|--------------------|--------4-----------|-----------2--4-(4)-|
D|--------0--2--4-(4)-|-----4--------------|--------5-----------|
A|-----0--------------|--2-----------------|-----5--------------|
D|--0-----------------|--------------------|--5-----------------|

    Q    +Q     +E   E     +E   +E   +E   +E   +E   E
E|----------------------|-------------------------------|
B|-19---(19)---(19)-15--|-(15)-(15)-(15)-(15)-(15)-15---|
G|----------------------|-------------------------------|
D|----------------------|-------------------------------|
A|----------------------|-------------------------------|
D|----------------------|-------------------------------|

    E E   E  E   E  +E      E    E    E    E    E  +E
E|----------------------|-------------------------------|
B|----------------------|-------------------------------|
G|----------------------|-------------------------------|
D|--------0--2---4--(4)-|-------------0----2----4--(4)--|
A|----0-----------------|--------0----------------------|
D|--0-------------------|---0---------------------------|

    E  E  E  E  E  E     E  E  E  E  E  E     E  E  E  E  E  E
E|-22----21-----------|-22----21-----------|-19----21----22-----|
B|----19-------22-----|----19-------22-----|--------------------|
G|----------21----19--|----------21----19--|--------------------|
D|--------------------|--------------------|----17----17----17--|
A|--------------------|--------------------|--------------------|
D|--------------------|--------------------|--------------------|

    E  E  E  E  E +E     E  E  E  E  E +E     E  E  E  E  E +E
E|--------------------|--------------------|--------------------|
B|-----------2--3-(3)-|--------------------|--------------------|
G|--------4-----------|--------------------|-----------2--4-(4)-|
D|-----4--------------|--------0--2--4-(4)-|--------5-----------|
A|--2-----------------|-----0--------------|-----5--------------|
D|--------------------|--0-----------------|--5-----------------|

    Q    +Q     +E   E     +E   +E   +E   +E   +E   E
E|----------------------|-------------------------------|
B|-22---(22)---(22)-15--|-(15)-(15)-(15)-(15)-(15)-15---|
G|----------------------|-------------------------------|
D|----------------------|-------------------------------|
A|----------------------|-------------------------------|
D|----------------------|-------------------------------|

    E E   E  E   E  +E      E    E    E    E    E  +E
E|----------------------|-------------------------------|
B|----------------------|-------------------------------|
G|----------------------|-------------------------------|
D|--------0--2---4--(4)-|-------------0----2----4--(4)--|
A|----0-----------------|--------0----------------------|
D|--0-------------------|---0---------------------------|

    E  E  E  E  E  E     E  E  E  E  E  E     E  E  E  E  E  E
E|-22----21-----------|-22----21-----------|-19-----------------|
B|----19-------22-----|----19-------22-----|-------22----20-----|
G|----------21----19--|----------21----19--|--------------------|
D|--------------------|--------------------|----17----17----17--|
A|--------------------|--------------------|--------------------|
D|--------------------|--------------------|--------------------|

    E  E  E  E  E +E     E  E  E  E  E +E     E  E  E  E  E +E
E|--------------------|--------------------|--------------------|
B|--------------------|-----------2--3-(3)-|--------------------|
G|--------------------|--------4-----------|-----------2--4-(4)-|
D|--------0--2--4-(4)-|-----4--------------|--------5-----------|
A|-----0--------------|--2-----------------|-----5--------------|
D|--0-----------------|--------------------|--5-----------------|

    Q    +Q     +E   E     +E   +E   +E   +E   E  E
E|----------------------|---------------------14------|
B|-22---(22)---(22)-15--|-(15)-(15)-(15)-(15)----10---|
G|----------------------|-----------------------------|
D|----------------------|-----------------------------|
A|----------------------|-----------------------------|
D|----------------------|-----------------------------|

    E E   E  E   E  +E      E    E    E    E   E +E
E|----------------------|-----------------------------|
B|----------------------|-----------------------------|
G|----------------------|-----------------------------|
D|--------0--2---4--(4)-|-------------0----2---4-(4)--|
A|----0-----------------|--------0--------------------|
D|--0-------------------|---0-------------------------|

    E  E  E  E  E  E     E E  E E E  E     Q    +Q     +Q
E|-15----14----12-----|-12---10---9-----|-10---(10)---(10)---|
B|----12----10-----8--|----8----8----8--|--------------------|
G|--------------------|-----------------|--------------------|
D|--------------------|-----------------|--------------------|
A|--------------------|-----------------|--------------------|
D|--------------------|-----------------|--------------------|

    E  E  E  E  E +E     E E  E E E +E     E E   E  E   E  E
E|--------------------|-----------------|------------------2-|
B|--------------------|---------0-3-(3)-|-----------2---3----|
G|-----------2--4-(4)-|-------2---------|--------4-----------|
D|--------5-----------|----2------------|----4---------------|
A|-----5--------------|--0--------------|--2-----------------|
D|--5-----------------|-----------------|--------------------|

    +Q     +Q     E  E     E  E  E  E  E  E
E|-(10)---(10)---14-----|-15----14----12------|
B|------------------10--|----12----10-----8---|
G|----------------------|---------------------|
D|----------------------|---------------------|
A|----------------------|---------------------|
D|----------------------|---------------------|

     E  E   E  E  E +E     E  E  E  E  E +E
E|----------------------|---------------------|
B|----------------------|---------------------|
G|-------------2--4-(4)-|-----------0--2-(2)--|
D|----------5-----------|--------2------------|
A|------5---------------|-----2---------------|
D|---5------------------|--2------------------|

    E E  E E E  E     Q    +Q     +Q       +Q     +Q     +Q
E|-12---10---9-----|-10---(10)---(10)---|-(10)---(10)---(10)-------|
B|----8----8----8--|--------------------|--------------------------|
G|-----------------|--------------------|--------------------------|
D|-----------------|--------------------|--------------------------|
A|-----------------|--------------------|--------------------------|
D|-----------------|--------------------|--------------------------|

    E E  E E E +E     E E   E  E   E  E     E  E   E  E   E  E +E
E|-----------------|--------------------|--------------------------|
B|---------0-3-(3)-|------------------3-|-----------------0--3-(3)-|
G|-------2---------|-----------0---2----|-------------2------------|
D|----2------------|--------3-----------|----------5---------------|
A|--0--------------|----3---------------|------5-------------------|
D|-----------------|--3-----------------|---5----------------------|

   Q   +E  E E  E    Q   +E  E E  E    Q   +E  E E  E
E|-----------------|-----------------|-----------------|
B|-3---(3)------3--|-1---(1)------1--|-----------------|
G|-----------2-----|-----------2-----|-3---(3)------3--|
D|---------2-------|---------2-------|---------2-4-----|
A|-----------------|-----------------|-----------------|
D|-----------------|-----------------|-----------------|

   E E  E  E E +E    E E  E  E E +E    E E  E  E E +E
E|-----------------|-----------------|-----------------|
B|-----------------|-----------------|-----------------|
G|-----------------|-----------------|-----------------|
D|------0--2-4-(4)-|------0--2-3-(3)-|------0--2-4-(4)-|
A|---0-------------|---0-------------|---1-------------|
D|-0---------------|-0---------------|-0---------------|

   Q   +E  E E  E    Q   +E  E E  E
E|-----------------|------------------|
B|--------------0--|-3---(3)------3---|
G|-4---(4)---0-----|-----------2------|
D|---------2-------|---------2--------|
A|-----------------|------------------|
D|-----------------|------------------|

   E E  E  E E +E    E E  E  E E +E
E|-----------------|------------------|
B|-----------------|------------------|
G|-----------------|------------------|
D|------0--2-4-(4)-|------0--2-4-(4)--|
A|---2-------------|---0--------------|
D|-0---------------|-0----------------|

   Q   +E  E E  E    Q   +E  E E  E    Q   +E  E E  E
E|-----------------|-----------------|-----------------|
B|-1---(1)------1--|-----------------|--------------0--|
G|-----------2-----|-3---(3)------3--|-4---(4)---0-----|
D|---------2-------|---------2-4-----|---------2-------|
A|-----------------|-----------------|-----------------|
D|-----------------|-----------------|-----------------|

   E E  E  E E +E    E E  E  E E +E    E E  E  E E +E
E|-----------------|-----------------|-----------------|
B|-----------------|-----------------|-----------------|
G|-----------------|-----------------|-----------------|
D|------0--2-3-(3)-|------0--2-4-(4)-|------0--2-4-(4)-|
A|---0-------------|---1-------------|---2-------------|
D|-0---------------|-0---------------|-0---------------|

   Q   +Q    +E   E    +Q    +Q    +E   E
E|-------------------|----------------------|
B|-3---(3)---(3)-----|-(3)---(3)---(3)------|
G|-------------------|----------------------|
D|----------------0--|------------------0---|
A|-------------------|----------------------|
D|-------------------|----------------------|

   E E  E  E  E  +E     E  E  E  E  E  +E
E|-------------------|----------------------|
B|-------------------|----------------------|
G|-------------------|----------------------|
D|------0--2--4--(4)-|--------0--2--4--(4)--|
A|---0---------------|-----0----------------|
D|-0-----------------|--0-------------------|

E|-------------|-------------|-------------|--------------|
B|-------------|-------------|-------------|--------------|
G|-------------|-------------|-------------|--------------|
D|-------------|-------------|-------------|--------------|
A|-------------|-------------|-------------|--------------|
D|-------------|-------------|-------------|--------------|

   E E E E E E   E E E E E E   E E E E E E   E E E E E E
E|-----------2-|-----------2-|-----------2-|-----------2--|
B|-------2-3---|-------2-3---|-------2-3---|-------2-3----|
G|-----4-------|-----4-------|-----4-------|-----4--------|
D|---4---------|---4---------|---0---------|---2----------|
A|-2-----------|-2-----------|-------------|-0------------|
D|-------------|-------------|-5-----------|--------------|

                               E E E  E  E E   E E E  E  E E
E|-------------|-------------|---------------|----------------|
B|-------------|-------------|---------------|----------------|
G|-------------|-------------|-0-------------|-----------0-2--|
D|-------------|-------------|---4-2--0----0-|---0-2--4-------|
A|-------------|-------------|-----------4---|-4--------------|
D|-------------|-------------|---------------|----------------|

   E E E E E E   E E E E E E   E E E +Q.       E E E +Q.
E|-----------2-|-----------2-|---------------|----------------|
B|-------2-3---|-------2-3---|---------------|----------------|
G|-----4-------|-----4-------|-----4-(4)-----|-----4-(4)------|
D|---4---------|---4---------|---0-----------|---2------------|
A|-2-----------|-2-----------|---------------|-0--------------|
D|-------------|-------------|-5-------------|----------------|

   E E E E E E   E E E E E E   E E E E E E   E E E E E E
E|-----------2-|-----------2-|-----------2-|-----------2--|
B|-------2-3---|-------2-3---|-------2-3---|-------2-3----|
G|-----4-------|-----4-------|-----4-------|-----4--------|
D|---4---------|---4---------|---0---------|---2----------|
A|-2-----------|-2-----------|-------------|-0------------|
D|-------------|-------------|-5-----------|--------------|

                               E E E  E  E E   E E E  E  E E
E|-------------|-------------|---------------|----------------|
B|-------------|-------------|---------------|----------------|
G|-------------|-------------|-0-------------|-----------0-2--|
D|-------------|-------------|---4-2--0----0-|---0-2--4-------|
A|-------------|-------------|-----------4---|-4--------------|
D|-------------|-------------|---------------|----------------|

   E E E E E E   E E E E E E   E E E +Q.       E E E +Q.
E|-----------2-|-----------2-|---------------|----------------|
B|-------2-3---|-------2-3---|---------------|----------------|
G|-----4-------|-----4-------|-----4-(4)-----|-----4-(4)------|
D|---4---------|---4---------|---0-----------|---2------------|
A|-2-----------|-2-----------|---------------|-0--------------|
D|-------------|-------------|-5-------------|----------------|


************************************

| (n)  Ghost note

************************************

            
            
Suggest correction
Creating personal tab
Creating personal tab
You can edit any tab online and save it as your Personal.

You can edit, replace or remove any tab part or add personal notes – all changes will be seen only by you.

Personal tabs can be accessed anytime from any device, even offline.
Learn more »
Give kudos to tab author, rate the tab!
1 2 3 4 5
comments
print report bad tab
3 comments total.
0 reply
danohrly 207 Oct 28, 2008 11:15 AM

Thanks for the tab :D

0 reply
dsotm73 81 Jul 20, 2009 05:39 PM

it's actually in 3/4 time, not 4/4

0 reply
Lil_Joker93 51 Jan 24, 2010 03:14 AM

does he mean open D tuning, not Drop D.

guest
You may want to rate the tab now too:
select rating
Wanna post a correction for this tab? Suggest correction