Oops, an error
Loading. Please wait.

Ode To Joy bass

version 3
version 3
16,703 views 6 this week
2 commentsread comments
1 2 3 4 5
x 25
add to favorites
×
Save as Personal and add changes to this tab that will be seen only by you. Learn more ›
×
You can save this tab as Personal to edit and correct it or add notes. All changes will be seen only by you. Learn more »
launch autoscroll
font size
0
reset
guitar tuner
edit
Autoscroll
slow
fast
+/-
esc
set tempo
stop
Author
Difficulty
Ode To Joy From Beethoven's 9th Symphony 4th Movement.
Tabbed By W0rkshoppe
Time= 4/4
Tempo=120
Key = Dmaj
Tuning=Standard EADG

h=hammer on
p=pull of
\=slide up
Q=quarter note
Q.=dotted quarter note
E=eighth note
H=half note



  Q Q Q Q Q Q Q Q Q Q Q Q Q.EH   Q Q Q Q Q Q Q Q Q Q Q Q Q.EH 
g:----0-2-2-0------------------------0-2-2-0--------------------}
d:4-4---------4-2-0-0-2-4-4\22---4-4---------4-2-0-0-2-4-2p00---}
a:--------------------------------------------------------------}
e:--------------------------------------------------------------}

  Q Q Q Q Q E E Q Q Q E E Q Q Q Q Q Q Q Q Q Q Q Q Q Q Q Q Q Q Q.EH
g:----------------------------------------0-2-2-0--------------------}
d:2-2-4-0-2-4h5-4-0-2-4h5-4-2-0-2---4-4-4---------4-2-0-0-2-4-2p00---}
a:--------------------------------0----------------------------------}
e:-------------------------------------------------------------------}

            
            
Suggest correction
Creating personal tab
Creating personal tab
You can edit any tab online and save it as your Personal.

You can edit, replace or remove any tab part or add personal notes – all changes will be seen only by you.

Personal tabs can be accessed anytime from any device, even offline.
Learn more »
comments
print report bad tab
2 comments total.
0 reply
w0rkshoppe 51 Jul 13, 2009 01:48 PM

For some reason the ending got cut off, but I fixed it so the new version should be up any day now.

0 reply
tonyo652 10 Nov 29, 2017 11:37 AM

Very Nice!

guest
You may want to rate the tab now too:
select rating
Wanna post a correction for this tab? Suggest correction