Oops, an error
Loading. Please wait.
We have Chord Pro version of Despacito.
It's the closest thing you can get to the original song and it has interactive parts. Check out the tab »
×

Despacito solo tab

version 2
version 2

Whole song

  • Full fingerstyle arrangement by Andrew Foy.
  • Acoustic fingerstyle version with melody and harmo... Show more

Interactive

6,925 views 255 this week
5 commentsread comments
1 2 3 4 5
x 7
add to favorites
×
Save as Personal and add changes to this tab that will be seen only by you. Learn more ›
×
You can save this tab as Personal to edit and correct it or add notes. All changes will be seen only by you. Learn more »
launch autoscroll
font size
0
reset
how to read this tab
guitar tuner
edit
Autoscroll
slow
fast
+/-
esc
set tempo
stop
CAPO on 7th FRET




[Intro]
                  Em
e|--0--3-2p0----0-----|----0-2-3-5---7~---7~---7~--|-------3--2----0|
B|--0---------3----0--|--0-------------8~---8~-----|----------------|
G|--0--------------0--|----------------------------|--2/4-----2----0|
D|-----------------2--|----------------------------|----------------|
A|-----------------2--|----------------------------|----------------|
E|-----------------0--|----------------------------|----------------|

e|----10------9----7---------|
B|---------------------------|
G|-3/11----11\9--9\7---------|
D|---------------------------|
A|---------------------------|
E|---------------------------|

(Play this part without the Capo.)

[Chorus]
e|----------------------------|----------------------------|------------------------|
B|----------------------------|----------------------------|---------------5-5------|
G|-7-6-4--------4-4-4-2-4-0---|-0--0--0--4--4--4--6--7-----|--------7-7-7------6----|  
D|-------4-4-4----------------|-------------------------7--|-7-7-7------------------| 
A|----------------------------|----------------------------|------------------------|
E|----------------------------|----------------------------|------------------------|

e|----------------------------|----------------------------|---------------------------|
B|----------------------------|----------------------------|---------------5-5---------|
G|-7-6-4--------4-4-4-2-4-0---|-0--0--0--4--4--4--6--7-----|--------7-7-7------6--7-6--|  
D|-------4-4-4----------------|-------------------------7--|-7-7-7---------------------| 
A|----------------------------|----------------------------|---------------------------|
E|----------------------------|----------------------------|---------------------------|


e|---------------|-----------------5------|----------------|
B|-7-5-7-5-7-5-7-|-7-8-8-----8-8-8----8-7-|-7-7-7-8-7-5----| 
G|---------------|------7-7---------------|----------------|
D|---------------|------------------------|----------------|
A|---------------|------------------------|----------------|
E|---------------|------------------------|----------------|

e|---------------|-----------------5------|-----5----------|
B|-7-5-7-5-7-5-7-|-7-8-8-----8-8-8----8-7-|-7-7---8-7-5----| 
G|---------------|------7-7---------------|----------------|
D|---------------|------------------------|----------------|
A|---------------|------------------------|----------------|
E|---------------|------------------------|----------------|



***********************************
| /   Slide up
| p   Pull-off
| ~   Vibrato
***********************************

            
            
Suggest correction
Creating personal tab
Creating personal tab
You can edit any tab online and save it as your Personal.

You can edit, replace or remove any tab part or add personal notes – all changes will be seen only by you.

Personal tabs can be accessed anytime from any device, even offline.
Learn more »
comments
print report bad tab
5 comments total. Showing first comments. show 1 bad comment
0 reply
franklouisungria 44 Nov 14, 2017 01:21 AM

I'm just a beginner im sorry :(

+1 reply
cadearichard4098 10 Aug 20, 2017 07:29 PM

😐 :/ its ok

guest
You may want to rate the tab now too:
select rating
Wanna post a correction for this tab? Suggest correction