Oops, an error
Loading. Please wait.

Nco Kuv Me Me tab

by Luj Yaj
976 views 30 this week
no commentswrite comment
1 2 3 4 5
2 more votes to show rating
add to favorites
×
Save as Personal and add changes to this tab that will be seen only by you. Learn more ›
×
You can save this tab as Personal to edit and correct it or add notes. All changes will be seen only by you. Learn more »
launch autoscroll
font size
0
reset
how to read this tab
guitar tuner
edit
Autoscroll
slow
fast
+/-
esc
set tempo
stop
Verse 1: Am Em Am C Am Dm Am Dm G
Verse 2&3: Am Em Am C Am Dm Am Dm C
Right after picking C on verse 2, strum the C then move on to chorus Chords.
Chorus Strumming After Verse 2: Dm C( Continue with C Chord ) Am Dm G
For the Chorus Picking, Gm gives it a nice sound or if not you can just do G
Chorus Picking After Verse 3: Dm C (Continue with C Chord) Am Dm Gm

Tab is picking for the verses. For the Second and Third verse, switch the last chord "G" 
with "C" which I have provided the tab for playing that chord. Strum after finishing 
Second verse for the chorus and Pick after finishing the third verse.

The next set of tabs are what you play after finishing Verse 3.

Took an hour give a little respect please and heres a youtube link to what I tabbed. 
Have fun Playing:)
https://www.youtube.com/watch?v=v8yG1OkF9ic

Tuning:Standard

                       Am            Em           Am
e|-3--0--------0--------------0------------0------------0-----------0--------|
B|-------3--1-----3--1--------1------------0------------1-----------1--------|
G|----------------------2------------0------------2-----------2--------------|
D|-------------------------2-----2------2-----2------2-----2-----2-----2-----|
A|----------------------0------------2------------0-----------0--------------|
E|---------------------------------------------------------------------------|
    C                           Am                     Dm
e|--------0--------------0-----------0-----------0-----------1-----------1---|
B|--1-----1-----1--1-----1-----------1-----------1-----3-----3-----3-----3---|
G|-----0-----0--------0-----0--2-----------2--------------2-----2-----2-----2|
D|--------------------------------2-----2-----2-----2--0-----------0---------|
A|--3--------------3-----------0-----------0---------------------------------|
E|---------------------------------------------------------------------------|
               Am          Dm          G
e|-------1-----------0-----------1-----------3--------------3----------------|
B|-3-----3-----------1-----3-----3-----3-----3-----3--3-----3-----3--3-------|
G|----2-----2--2--------------2-----2-----0-----0--------0-----0-------------|
D|-0--------------2-----2--0-------------------------------------------------|
A|-------------0-------------------------------------------------------------|
E|-------------------------------------3--------------3--------------3-------|
"C" Chord right after Dm (The extra zero is added to Dm):
       C
e|-----------0--------------0------------------------------------------------|
B|--0--1-----1-----1--1-----1------------------------------------------------|
G|--------0-----0--------0-----0---------------------------------------------|
D|---------------------------------------------------------------------------|
A|-----3--------------3------------------------------------------------------|
E|---------------------------------------------------------------------------|

Play after finishing Verse 3.
                             Am          Em                        Am
e|--3---------------------------------------------------0h3--0---------------|
B|-----3s5--3--1--3s5--3--1-------------------------------------3--1---------|
G|---------------------------2-----2-----0-----0-----2----------------2------|
D|------------------------------2-----2-----2-----2----------------------2---|
A|---------------------------0-----------2-----------0-------------0---------|
E|---------------------------------------------------------------------------|
        C                         Am                          Dm
e|------0-------------------0---------------------------------------1--------|
B|-1h3----------------------1-------------------------1-------3-----3--3s5--3|
G|------------0--0h2--0-----------2-----0-----0h2--0-----0h2-----2-----------|
D|---------2-------------2-----2-----2-----2------------------0--------------|
A|------3-------------3-----------0------------------------------------------|
E|---------------------------------------------------------------------------|
      Am                          C              C              C   (Chorus Start here)
e|---------------------3----------------0-------------1--------------0------|
B|-1----------------------3s5-----1-----1-------1-----1-----0--1-----1-----1|
G|----2--0-----0--0h2----------2-----0-----0-------2-----2--------0-----0---|
D|----------2---------------------------------------------------------------|
A|----0---------------------------3-------------3--------------3------------|
E|--------------------------------------------------------------------------|
   C           Dm          Dm          C           C          C            C
e|-------0-----------1-----------1-----------0-----------0-----------0-------|
B|-1-----1-----3-----3-----3-----3-----1-----1-----1-----1-----1-----1-----1-|
G|----0-----0-----2-----2-----2-----2-----0-----0-----0-----0-----0-----0----|
D|-------------0-----------0-------------------------------------------------|
A|-3-----------------------------------3-----------3-----------3-----------3-|
E|---------------------------------------------------------------------------|
            C           C           Am          Am          Dm          Dm       
Gm(Strum the chord)
e|----0-----------0-----------0-----------0-----------0-----------1-----------1--3|
B|----1-----1-----1-----1-----1-----------0-----------0-----3-----3-----3-----3--3|
G|-0-----0-----0-----0-----0-----0--2-----------2--------------2-----2-----2-----4|
D|-------------------------------------2-----2-----2-----2--0-----------0--------5|
A|----------3-----------3-----------0-----------0--------------------------------5|
E|-------------------------------------------------------------------------------3|

            
            
Suggest correction
Creating personal tab
Creating personal tab
You can edit any tab online and save it as your Personal.

You can edit, replace or remove any tab part or add personal notes – all changes will be seen only by you.

Personal tabs can be accessed anytime from any device, even offline.
Learn more »
Give kudos to tab author, rate the tab!
1 2 3 4 5
comments
print report bad tab
guest
Wanna post a correction for this tab? Suggest correction