Oops, an error
Loading. Please wait.

7 Years tab

version 1
version 1

Whole song

Interactive

Video

44,434 views 93 this week
13 commentsread comments
1 2 3 4 5
x 27
add to favorites
×
Save as Personal and add changes to this tab that will be seen only by you. Learn more ›
×
You can save this tab as Personal to edit and correct it or add notes. All changes will be seen only by you. Learn more »
launch autoscroll
font size
0
reset
how to read this tab
guitar tuner
edit
Autoscroll
slow
fast
+/-
esc
set tempo
stop
Author
E|--6p5-------------------------------------|    4x
B|---------8h6---------6---------6---------6|
G|----------------7---------7---------7-----|
D|------------------------------------------|
A|------------------------------------------|
E|------------------------------------------|


E|-------------------------------------------|   
B|--8h6-6-6------6-------------------6-------|
G|-----------7------5-------------7------5---|
D|----------------------8----5--------------8|
A|-------------------------------------------|
E|-------------------------------------------|

E|------------------------------------------------------|   
B|-----------------------------------6-6-------6--------|
G|------7--55-55----5---7h5-----------------7------5----|
D|--5-------------8---8------8--5----------------------8|
A|------------------------------------------------------|
E|------------------------------------------------------|

E|-----------------------------------------------|   
B|------------------------------6----------------|
G|-------5-7----5---------5--7----5--------------|
D|--8-8-----------8----8------------8------------|
A|-----------------------------------------------|
E|-----------------------------------------------|

E|-----------------------------------------------------------|   
B|----------------------------------6------------------------|
G|-------------5-7-5------------5-7----5---------------------|
D|--(8)(1x)-8---------8 2x ---------------8------------------|
A|-----------------------------------------------------------|
E|-----------------------------------------------------------|

E|----------------------------------------------------------------|   
B|----------------------------6-----------------------------------|  2X 
G|------5-7-5------------5-7----5---------------------------------|
D|---8---------8-(2x)--8------------8-----------------------------|
A|----------------------------------------------------------------|
E|----------------------------------------------------------------|

E|----------------------------------------------------------------------------|  
B|-----6-6--6---6---------6---------------------------------66-6---6----------|  
G|------------7---5-----7---5------7--55-55-5---5-7--5-----------7---5--------|
D|---5--------------8-5-------8--5------------8--------8--5------------8---8--|
A|----------------------------------------------------------------------------|
E|----------------------------------------------------------------------------|

My first tab, hope you like it! :)

            
            
Suggest correction
Creating personal tab
Creating personal tab
You can edit any tab online and save it as your Personal.

You can edit, replace or remove any tab part or add personal notes – all changes will be seen only by you.

Personal tabs can be accessed anytime from any device, even offline.
Learn more »
comments
print report bad tab
13 comments total. Showing first comments.
0 reply
werner.dewitte 10 Feb 19, 2016 04:32 AM

maybe add the bass notes

+3 reply
96Steph 10 Feb 25, 2016 07:50 PM

do you need a capo? if so, on which fret?? thanks :)

+2 reply
StomaticArc 62 Feb 28, 2016 03:38 AM

You dont need a capo ;)

guest
You may want to rate the tab now too:
select rating
Wanna post a correction for this tab? Suggest correction