Oops, an error
Loading. Please wait.

Rock Star Supernova tab

1,156 views 1 this week
5 commentsread comments
1 2 3 4 5
x 4
add to favorites
×
Save as Personal and add changes to this tab that will be seen only by you. Learn more ›
×
You can save this tab as Personal to edit and correct it or add notes. All changes will be seen only by you. Learn more »
launch autoscroll
font size
0
reset
how to read this tab
guitar tuner
edit
Autoscroll
slow
fast
+/-
esc
set tempo
stop
Author
hello!!..
in this tab, I will put tabs of what Lukas Rossi sang fron rockstar:supernova..
he's my idol..he can sing well..Lukas Rossi rocks!!!
I do not believe Dilana will win, Lukas will!
anyway down with the tabs...

I hope you accept my tab...

Creep - Radiohead
tabbed by yrashid@gpu.srv.ualberta.ca (Berzerker)

INTRO
e |----------------------------------|----------------------------------|
B |----------------------------------|3-----------------------3---------|
G |--------------------4-------------|----4-------4---------------------|
D |--------5-------5-----------5-----|--------5-------------------5/----|
A |----5-------5---------------------|----------------------------------|
E |3---------------------------------|----------------------------------|

e |----------------------------------|----------------------------------|
B |----------------------------------|----------------------------------|
G |--------8-----------8-------------|9-----------8-----------8---------|
D |------------9---------------------|------------9---------------9-----|
A |----9-----------9-----------------|----9-----------------------------|
E |7---------------------------------|----------------------------------|

e |----------------------------------|----------------------------------|
B |----------------------------------|----------------------------------|
G |--------9-----------9-------------|10----------9-----------9---------|
D |----------------------------------|----------------------------10----|
A |----10------10--------------10----|--------10----------10------------|
E |8---------------8-----------------|----------------------------------|
VERSE
e |----------------------------------|----------------------------------|
B |----------------------------------|----------------------------------|
G |----8-----------8-----------------|----8-----------8-----------------|
D |--------10----------10------10----|--------10----------10------------|
A |10----------10----------10--------|10----------10----------10--------|
E |------------------------8---------|----------------------------------|

e |----------------------------------|----------------------------------|
B |----------------------------------|----------------------------------|
G |----------------------------------|4-----------------------4---------|
D |--------5----------5--------------|--------5-------------------5-----|
A |----5-------5---------------5-----|------------5-------5-------------|
E |3---------------3-----------------|----------------3-----------------|

e |----------------------------------|----------------------------------|
B |----------------------------------|----------------------------------|
G |----------------------------------|8-----------------------8---------|
D |(8)-----9-----------9-------------|----9-------9---------------9-----|
A |----9-----------9-----------9-----|--------9-----------9-------------|
E |7---------------------------------|----------------------------------|

e |----------------------------------|----------------------------------|
B |----------------------------------|----------------------------------|
G |--------------------9-------------|9---------------------------------|
D |--------10-----10-----------10----|----10------10----------10--------|
A |----10------10--------------------|--------10----------10------10----|
E |8---------------------------------|----------------------------------|
 
e |----------------------------------|----------------------------------|
B |----------------------------------|----------------------------------|
G |----------------8-----------------|8-------------------8-------------|
D |----10------10------10------10----|--------10--------------10--------|
A |--------10--------------10--------|----10------10--10----------10----|
E |8---------------------------------|----------------------------------|

e |----------------------------------|3-----------------------3---------|
B |----------------------------------|3-------------3-------------------|
G |--------4-----------4-------4-----|--------4-----4-------------4-----|
D |------------5---------------------|------------5---------------------|
A |----5-----------5-----------------|----------------------------------|
E |3---------------------------------|----------------------------------|
REFRAIN
e |----------------------------------|7-----------------------7---------|
B |--------7-----------7-------7-----|7---7-------7---------------7-----|
G |--------8-------8-------8---------|--------8-----------8-------------|
D |----9-------9---------------------|----------------------------------|
A |9---------------------------------|----------------------------------|
E |----------------------------------|----------------------------------|
 
e |----------------------------------|8-----------------------8---------|
B |------------------------8---------|----8-------8---------------8-----|
G |--------9-------9-----------9-----|--------9-----------9-------------|
D |----10--------------10------------|----------------------------------|
A |10----------10--------------------|----------------------------------|
E |----------------------------------|----------------------------------|

e |----------------------------------|----------------------------------|
B |----8-----------------------------|----------------------------------|
G |--------8-------8-----------------|----8-----------8-----------------|
D |------------10------10------10----|--------10----------10------10----|
A |10----------------------10--------|10----------10----------10--------|
E |----------------------------------|----------------------------------|
CHORUS
e |----------------------------------|------------------------*---------|
B |----------------------------------|----------------------------------|
G |----------------x-x---------------|----x-x-----------------x-x-0-0---|
D |----------------x-x---------------|----x-x-----------------x-x-0-0---|
A |----------------x-x---------------|----x-x-----------------x-x-------|
E |----------------x-x---------------|----x-x-----------------x-x-------|

{Gtr.2}
e |3---------------------------------|----------------------------------|
B |3---------------------------------|----------------------------------|
G |0---------------------------------|--------------------0---0---0-0---|
D |0---------------------------------|--------------------0---0---0-0---|
A |----------------------------------|----------------------------------|
E |3---------------------------------|--------------------3---3---------|

e |--------3-------3-----------------|----------------------------------|
B |------------------------0-1-3-----|----------------------------------|
G |0-------------------0-------------|----0-----------------------------|
D |0---------------------------------|------------0---------------------|
A |----------------------------------|----------------------------------|
E |3---------------------------------|--------------------3/-(22)\------|

e |7-----------------7-7-7-7---7-----|----------------------------------|
B |7-----------------7-7-7-7---7-----|----------------0-0-0-0-0---------|
G |8-----------------8-8-8-8---8-----|----------------------------------|
D |9---------------------------9-----|----------------------------------|
A |9---------------------------9-----|----------------------------9-9---|
E |7---------------------------7-----|----------------------------7-7---|

e |----------------------------------|----------------------------------|
B |------------------------7---------|----------------------------------|
G |------------------------8-9-8-----|----------------------------------|
D |9-----------------------9---------|----9-----------------------------|
A |9---------------------------------|------------9-----------9---------|
E |7---------------------------------|--------------------7-------------|

e |----------------------------------|----------------------------------|
B |----------------------------------|----------------------------------|
G |----------------------------------|----------------------------------|
D |(10)*-*-*-10-10-10-10/-12-12------|(12)*-*-*-*-----------------------|
A |----------------------------------|----------------------------------|
E |-8--------8--8--8---8/-10-10------|(10)------------------------------|

e |----------------------------------|----------------------------------|
B |------------------------8---------|----------------------------------|
G |9-----------------------9-10-9----|----------------------------------|
D |10----------------------10---10---|----10----------------------------|
A |10--------------------------------|------------10--------------------|
E |8---------------------------------|------------------------8---------|

Bittersweet Symphony - The Verve
Tabbed by Ghuanr/ghuanr@hotmail.com

E---------------------10----10----9----9--------------
B-9-12-9--10----10-------10---------10----------------
G------------11---------------------------------------
D-----------------------------------------------------
A-----------------------------------------------------
E-----------------------------------------------------

Rebel Yell
Tabbed by Vulgar101.com

Intro                                    Bridge
                                       3x                               
E||---10--10--10--10--10--10--10--10---||--10--9--10--7--10--9--10--7--|
B||---12--12--12--12--12--12--12--12---||------------------------------|
G||*----------------------------------*||------------------------------|
D||*--------------------------7---9---*||--5---------------------------|
A||---------------9--------------------||--5---------------------------|
E||---7--------------------------------||--3---------------------------|


                                                              
--10--9--10--7--10--9--10--7--|--10--9--10--7--10--9--10--7--|
------------------------------|------------------------------|
------------------------------|------------------------------|
--4---------------------------|--2h--------------------------|
--4---------------------------|--2---------------------------|
--2---------------------------|--0---------------------------|


                                                              
--10--9--10--7--10--9--10--7--|--10--9--10--7--10--9--10--7--|
------------------------------|------------------------------|
------------------------------|------------------------------|
--2h--------------------------|--5---------------------------|
--2---------------------------|--5---------------------------|
--0---------------------------|--3---------------------------|


                                                              
--10--9--10--7--10--9--10--7--|--10--9--10--7--10--9--10--7--|
------------------------------|------------------------------|
------------------------------|------------------------------|
--4---------------------------|--2h--------------------------|
--4---------------------------|--2---------------------------|
--2---------------------------|--0---------------------------|


                                                                   
--10--9--10--7--10----9----|-------------------|------------------|
---------------------------|-------------------|------------------|
----------------7----------|--4----------------|------------------|
--2-------------7-----7----|--4----------------|------------------|
--2-------------5-----7----|--2----------------|------------------|
--0-------------------5----|-------------------|------------------|


                                        Verse                  
--10~---------------|------------------|----------------------|
--12~---------------|------------------|----------------------|
--------------------|------------------|--4----4------4----4--|
--------------------|------------------|--4----4------4----4--|
--------------------|------------------|--2----2------2----2--|
--------------------|------------------|----------------------|


                                                                     
----------------------|----------------------|----------------------|
----------------------|----------------------|----------------------|
--4----4------4----4--|--4----4------4----4--|--4----4------4----4--|
--4----4------4----4--|--4----4------4----4--|--4----4------4----4--|
--2----2------2----2--|--2----2------2----2--|--2----2------2----2--|
----------------------|----------------------|----------------------|


                                                                     
----------------------|----------------------|----------------------|
----------------------|----------------------|----------------------|
----------------------|----------------------|----------------------|
--7----7------7----7--|--7----7------7----7--|--5----5------5----5--|
--7----7------7----7--|--7----7------7----7--|--5----5------5----5--|
--5----5------5----5--|--5----5------5----5--|--3----3------3----3--|


                                                                      
-----------------------|----------------------|----------------------|
-----------------------|----------------------|----------------------|
-----------7--7--------|--4----4------4----4--|--4----4------4----4--|
--2--------7--7--7--7--|--4----4------4----4--|--4----4------4----4--|
--2--------5--5--7--7--|--2----2------2----2--|--2----2------2----2--|
--0--------------5--5--|----------------------|----------------------|


                                                                     
----------------------|----------------------|----------------------|
----------------------|----------------------|----------------------|
--4----4------4----4--|--4----4------4----4--|----------------------|
--4----4------4----4--|--4----4------4----4--|--7----7------7----7--|
--2----2------2----2--|--2----2------2----2--|--7----7------7----7--|
----------------------|----------------------|--5----5------5----5--|


                                                                    
----------------------|----------------------|---------------------|
----------------------|----------------------|---------------------|
----------------------|----------------------|-----------7---------|
--7----7------7----7--|--5----5------5----5--|--2--------7----7----|
--7----7------7----7--|--5----5------5----5--|--2--------5----7----|
--5----5------5----5--|--3----3------3----3--|--0-------------5----|


Chorus
                                                                       
|-----------------------|----------------------|----------------------|
|-----------------------|----------------------|----------------------|
|*--4--------4--4----4--|--4--------4--4----4--|--4--------4--4----4--|
|*--4--------4--4----4--|--4--------4--4----4--|--4--------4--4----4--|
|---2h-------2--2----2--|--2h-------2--2----2--|--2h-------2--2----2--|
|-----------------------|----------------------|----------------------|


                                                                      
-----------------------|----------------------|----------------------|
-----------------2--3--|----------------------|----------------------|
--4--------2--4-----4--|----------------------|----------------------|
--4--------4--4-----4--|--7h-------7--7----7--|--7h-------7--7----7--|
--2--------2--2-----2--|--7h-------7--7----7--|--7h-------7--7----7--|
-----------------------|--5h-------5--5----5--|--5h-------5--5----5--|


                                               
----------------------|----------------------||
----------------------|----------------------||
----------------------|-----------7---------*||
--5h-------5--5----5--|--2--------7----7----*||
--5h-------5--5----5--|--2--------5----7-----||
--3h-------3--3----3--|--0-------------5-----||

Hero - Chad Kroeger
Tabbed by Nate Stiller

Verse/Beginning
----------------|----------------|----------------|----------------|
----------------|----------------|----------------|----------------|
----------------|----------------|----------------|----------------|
6---6---6---6---|2---2---2---2---|6---6---6---6---|2---2---2---2---|
6---6---6---6---|2---2---2---2---|6---6---6---6---|2---2---2---2---|
4---4---4---4---|0---0---0---0---|4---4---4---4---|0---0---0---0---|

Pre-Chorus
----------------|----------------|----------------|
----------------|----------------|----------------|
----------------|----------------|----------------|
5-5-5-5-5-5-7-7-|7-7-7-7-2-2-2-2-|2-2-2-2-2-2-----|
5-5-5-5-5-5-7-7-|7-7-7-7-2-2-2-2-|2-2-2-2-2-2-----|
3-3-3-3-3-3-3-3-|3-3-3-3-0-0-0-0-|0-0-0-0-0-0-----|
                       PM....................

Chorus
----------------|----------------|----------------|
----------------|----------------|----------------|
----------------|----------------|----------------|
5-5-5-5-5-5-7-7-|7-7-7-7-9-9-9-9-|9-9-9-9-9-9-7-7-|
5-5-5-5-5-5-7-7-|7-7-7-7-9-9-9-9-|9-9-9-9-9-9-7-7-|
3-3-3-3-3-3-5-5-|5-5-5-5-7-7-7-7-|7-7-7-7-7-7-5-5-|

----------------|----------------|----------------|
----------------|----------------|----------------|
----------------|----------------|----------------|
5-5-5-5-5-5-7-7-|7-7-7-7-2-2-2-2-|2-2-2-2-2-2-----|
5-5-5-5-5-5-7-7-|7-7-7-7-2-2-2-2-|2-2-2-2-2-2-----|
3-3-3-3-3-3-5-5-|5-5-5-5-0-0-0-0-|0-0-0-0-0-0-----|
                       PM....................
Verse
----------------|----------------|----------------|----------------|
----------------|----------------|----------------|----------------|
----------------|----------------|----------------|----------------|
6---6---6---6---|2---2---2---2---|6---6---6---6---|2---2---2---2---|
6---6---6---6---|2---2---2---2---|6---6---6---6---|2---2---2---2---|
4---4---4---4---|0---0---0---0---|4---4---4---4---|0---0---0---0---|

Pre-Chorus
----------------|----------------|----------------|
----------------|----------------|----------------|
----------------|----------------|----------------|
5-5-5-5-5-5-7-7-|7-7-7-7-2-2-2-2-|2-2-2-2-2-2-----|
5-5-5-5-5-5-7-7-|7-7-7-7-2-2-2-2-|2-2-2-2-2-2-----|
3-3-3-3-3-3-3-3-|3-3-3-3-0-0-0-0-|0-0-0-0-0-0-----|
                       PM....................
Chorus
----------------|----------------|----------------|
----------------|----------------|----------------|
----------------|----------------|----------------|
5-5-5-5-5-5-7-7-|7-7-7-7-9-9-9-9-|9-9-9-9-9-9-7-7-|
5-5-5-5-5-5-7-7-|7-7-7-7-9-9-9-9-|9-9-9-9-9-9-7-7-|
3-3-3-3-3-3-5-5-|5-5-5-5-7-7-7-7-|7-7-7-7-7-7-5-5-|

----------------|----------------|----------------|
----------------|----------------|----------------|
----------------|----------------|----------------|
5-5-5-5-5-5-7-7-|7-7-7-7-2-2-2-2-|2-2-2-2-2-2-2-2-|
5-5-5-5-5-5-7-7-|7-7-7-7-2-2-2-2-|2-2-2-2-2-2-2-2-|
3-3-3-3-3-3-5-5-|5-5-5-5-0-0-0-0-|0-0-0-0-0-0-0-0-|

All These Things That I've Done - The Killers
Tabbed by colin carlson

Main riff:

~E|----------------------------------------------------------------|
~B|----------------------------------------------------------------|
~G|----------------------------------------------------------------|
~D|--11-11--8--11-----11-11--8--11-----8---8---8---8---8---8-------|
~A|---------------9-9--------------9-9---9---9---9---9---9---9-----|
~E|----------------------------------------------------------------|

Varition of the main riff at the end of the song :

~E|-9-9-6-9-----9-9-6-9-----6---6---6---6---6---6------------------|
~B|---------7-7---------7-7---7---7---7---7---7--------------------|
~G|----------------------------------------------------------------|
~D|----------------------------------------------------------------|
~A|----------------------------------------------------------------|
~E|----------------------------------------------------------------|

Verse:

~E|-222222222-222222222---|
~B|-444444444-222222222---|
~G|-444444444-333333333---|
~D|-444444444-444444444---|
~A|-222222222-444444444---|
E|-----------222222222----|

Chorus 1: (in the first part of the song)

~E|222222222-222222222-222222222-|
~B|222222222-444444444-222222222-|
~G|333333333-444444444-333333333-|
~D|444444444-444444444-444444444-|
~A|444444444-222222222-444444444-|
~E|222222222-----------222222222-|


that's it for now, I can't remember the other song he sang..


http://rockstar2006lukas.spaces.live.com/

            
            
Suggest correction
Creating personal tab
Creating personal tab
You can edit any tab online and save it as your Personal.

You can edit, replace or remove any tab part or add personal notes – all changes will be seen only by you.

Personal tabs can be accessed anytime from any device, even offline.
Learn more »
comments
print report bad tab
5 comments total. Showing first comments.
0 reply
drix_gnr 20 Sep 12, 2006 01:26 PM

great job! very complete! cool

0 reply
Darknes 10 Sep 18, 2006 07:59 AM

Can you get the headspin tabs??

0 reply
MyGuitarRoX-96 30 Sep 28, 2006 12:51 AM

I dont really like it sorry!

guest
You may want to rate the tab now too:
select rating
Wanna post a correction for this tab? Suggest correction