Oops, an error
Loading. Please wait.

Someone Else Calling You Baby tab

11,969 views 1 this week
no commentswrite comment
1 2 3 4 5
x 4
add to favorites
×
Save as Personal and add changes to this tab that will be seen only by you. Learn more ›
×
You can save this tab as Personal to edit and correct it or add notes. All changes will be seen only by you. Learn more »
launch autoscroll
font size
0
reset
how to read this tab
guitar tuner
edit
Autoscroll
slow
fast
+/-
esc
set tempo
stop
Difficulty
                     **Luke Bryan - Someone Else Calling You Baby**
 

  Email: oa_slagoo@yahoo.com
  
   Ok, well i know that all this may not be totally right and not all of  its there (like the    

   solo), but hey, its just the basics of the song and it sounds alright to me. 
oh, and yes, this is my first tab.

  TUNING: EADGBe (standard)



  INTRO:
               You can simplify it by playing just the
   (GUITAR 1): highest note on ovtave chord if you want...
  |-----------------------------------------------------------------------|
  |-------------{*************************}-------------------------------|
  |--5/--6/--8--{  Repeat| But on 4th time}---5/--6/--8--8h10--8\--6\--5--|
  |--x/--x/--x--{<<<  4x |  do this >>>>>>}---x/--x/--x--------x\--x\--x--| {x3}
  |--3/--4/--6--{*************************}---3/--4/--6--------6\--4\--3--|
  |-----------------------------------------------------------------------|



   (GUITAR 2): Starts after guitar 1 plays through the intro 1x
  |-------------------------------------------------------------------|
  |-------------------------------------------------------------------|
  |----------------------------------6-6-6-6-6-6-6-6-6-6-6-6-6-6-6-6--|
  |--3-3-3-3-3-3-3-3-3-3-3-3-3-3-3-3-6-6-6-6-6-6-6-6-6-6-6-6-6-6-6-6--|
  |--3-3-3-3-3-3-3-3-3-3-3-3-3-3-3-3-4-4-4-4-4-4-4-4-4-4-4-4-4-4-4-4--|
  |--1-1-1-1-1-1-1-1-1-1-1-1-1-1-1-1----------------------------------|
                 (16)                               (16)


  Verse: Play verse twice.
                                 {G#}
  |-------------------------------------------------------------------|
  |-------------------------------------------------------------------|
  |-------------------------------------------------------------------|
  |--6-6-6-6-6-6-6-6-6-6-6-6-6-6-6-6-6-6-6-6-6-6-6-6-6-6-6-6-6-6-6-6--|
  |--6-6-6-6-6-6-6-6-6-6-6-6-6-6-6-6-6-6-6-6-6-6-6-6-6-6-6-6-6-6-6-6--|
  |--4-4-4-4-4-4-4-4-4-4-4-4-4-4-4-4-4-4-4-4-4-4-4-4-4-4-4-4-4-4-4-4--| 
                                 (32)

  

           {F}            {C#}                    {G#}
  |-------------------------------------------------------------------|
  |-------------------------------------------------------------------|
  |------------------6-6-6-6-6-6-6-6----------------------------------|
  |--3-3-3-3-3-3-3-3-6-6-6-6-6-6-6-6-6-6-6-6-6-6-6-6-6-6-6-6-6-6-6-6--| <------+------------+
  |--3-3-3-3-3-3-3-3-4-4-4-4-4-4-4-4-6-6-6-6-6-6-6-6-6-6-6-6-6-6-6-6--|        |The intro   |
  |--1-1-1-1-1-1-1-1-----------------4-4-4-4-4-4-4-4-4-4-4-4-4-4-4-4--|        |riff is     |
           (8)            (8)                     (16)                         |played over |
                                                                               |top of the  |
                                                                               |G# chords.  |
                                                                               |            |
  |-----------------------------------------------------------------------|    |            |
  |-------------{*************************}-------------------------------|    |            |
  |--5/--6/--8--{  Repeat| But on 4th time}---5/--6/--8--8h10--8\--6\--5--|    |            |
  |--x/--x/--x--{<<<  4x |  do this >>>>>>}---x/--x/--x--------x\--x\--x--| <--+------------+
  |--3/--4/--6--{*************************}---3/--4/--6--------6\--4\--3--|
  |-----------------------------------------------------------------------|



  Pre Chorus:
                          {C}
  |--------------------------------------------------------->
  |--------------------------------------------------------->
  |--------------------------------------------------------->
  |--10-10-10-10-10-10-10-10-10-10-10-10-10-10-10-10-------->
  |--10-10-10-10-10-10-10-10-10-10-10-10-10-10-10-10-------->
  |--8--8--8--8--8--8--8--8--8--8--8--8--8--8--8--8--------->
                          (16)
                    
                          {C#}
  <---------------------------------------------------------|
  <---------------------------------------------------------|
  <---------------------------------------------------------|
  <--11-11-11-11-11-11-11-11-11-11-11-11-11-11-11-11--------|
  <--11-11-11-11-11-11-11-11-11-11-11-11-11-11-11-11--------|
  <--9--9--9--9--9--9--9--9--9--9--9--9--9--9--9--9---------|
                          (16)


                          {C}
  |--------------------------------------------------------->
  |--------------------------------------------------------->
  |--------------------------------------------------------->
  |--10-10-10-10-10-10-10-10-10-10-10-10-10-10-10-10-------->
  |--10-10-10-10-10-10-10-10-10-10-10-10-10-10-10-10-------->
  |--8--8--8--8--8--8--8--8--8--8--8--8--8--8--8--8--------->
                          (16)

           {A#}           {D#}
  <-----------------------------------|
  <-----------------------------------|
  <------------------8-8-8-8-8-8-8-8--|
  <--8-8-8-8-8-8-8-8-8-8-8-8-8-8-8-8--|
  <--8-8-8-8-8-8-8-8-6-6-6-6-6-6-6-6--|
  <--6-6-6-6-6-6-6-6------------------|
           (8)            (8)


  
  Chorus:

  |-------------------------------------------------------------------|
  |-------------------------------------------------------------------|
  |-------------------------------------------------------------------|
  |--6-6-6-6-6-6-6-6-6-6-6-6-6-6-6-6-3-3-3-3-3-3-3-3-3-3-3-3-3-3-3-3--|
  |--6-6-6-6-6-6-6-6-6-6-6-6-6-6-6-6-3-3-3-3-3-3-3-3-3-3-3-3-3-3-3-3--|
  |--4-4-4-4-4-4-4-4-4-4-4-4-4-4-4-4-1-1-1-1-1-1-1-1-1-1-1-1-1-1-1-1--| 


  |-------------------------------------------------------------------|
  |-------------------------------------------------------------------|
  |--3-3-3-3-3-3-3-3-3-3-3-3-3-3-3-------------------8-8-8-8-8-8-8-8-8|
  |--3-3-3-3-3-3-3-3-3-3-3-3-3-3-3-6-6-6-6-6-6-6-6-6-8-8-8-8-8-8-8-8-8|
  |--1-1-1-1-1-1-1-1-1-1-1-1-1-1-1-6-6-6-6-6-6-6-6-6-6-6-6-6-6-6-6-6-6|
  |--------------------------------4-4-4-4-4-4-4-4-4------------------|


  |-------------------------------------------------------------------|
  |-------------------------------------------------------------------|
  |-------------------------------------------------------------------|
  |--6-6-6-6-6-6-6-6-6-6-6-6-6-6-6-6-3-3-3-3-3-3-3-3-3-3-3-3-3-3-3-3--|
  |--6-6-6-6-6-6-6-6-6-6-6-6-6-6-6-6-3-3-3-3-3-3-3-3-3-3-3-3-3-3-3-3--|
  |--4-4-4-4-4-4-4-4-4-4-4-4-4-4-4-4-1-1-1-1-1-1-1-1-1-1-1-1-1-1-1-1--| 


  |-------------------------------------------------|
  |-------------------------------------------------|
  |--3-3-3-3-3-3-3-3-3-3-3-3-3-3-3-6-6-6-6-6-6-6-6-6|
  |--3-3-3-3-3-3-3-3-3-3-3-3-3-3-3-6-6-6-6-6-6-6-6-6|
  |--1-1-1-1-1-1-1-1-1-1-1-1-1-1-1-4-4-4-4-4-4-4-4-4|
  |-------------------------------------------------|




   (GUITAR 1):
  |-----------------------------------------------------------------------|
  |-------------{*************************}-------------------------------|
  |--5/--6/--8--{  Repeat| But on 4th time}---5/--6/--8--8h10--8\--6\--5--|
  |--x/--x/--x--{<<<  4x |  do this >>>>>>}---x/--x/--x--------x\--x\--x--| {x3}
  |--3/--4/--6--{*************************}---3/--4/--6--------6\--4\--3--|
  |-----------------------------------------------------------------------|



   (GUITAR 2): 
  |--------------------------------------------------------------------------------------------|
  |--------------------------------------------------------------------------------------------|
  |-----------------------------------------------------------6-6-6-6-6-6-6-6-6-6-6-6-6-6-6-6--|
  |-6-6-6-6-6-6-6-6-6-6-6-6-6-3-3-3-3-3-3-3-3-3-3-3-3-3-3-3-3-6-6-6-6-6-6-6-6-6-6-6-6-6-6-6-6--|
  |-6-6-6-6-6-6-6-6-6-6-6-6-6-3-3-3-3-3-3-3-3-3-3-3-3-3-3-3-3-4-4-4-4-4-4-4-4-4-4-4-4-4-4-4-4--|
  |-4-4-4-4-4-4-4-4-4-4-4-4-4-1-1-1-1-1-1-1-1-1-1-1-1-1-1-1-1----------------------------------|
               (16)                        (16)                               (16)
 

  Verse: 
                                 {G#}
  |-------------------------------------------------------------------|
  |-------------------------------------------------------------------|
  |-------------------------------------------------------------------|
  |--6-6-6-6-6-6-6-6-6-6-6-6-6-6-6-6-6-6-6-6-6-6-6-6-6-6-6-6-6-6-6-6--|
  |--6-6-6-6-6-6-6-6-6-6-6-6-6-6-6-6-6-6-6-6-6-6-6-6-6-6-6-6-6-6-6-6--|
  |--4-4-4-4-4-4-4-4-4-4-4-4-4-4-4-4-4-4-4-4-4-4-4-4-4-4-4-4-4-4-4-4--| 
                                 (32)

  

           {F}            {C#}                    {G#}
  |-------------------------------------------------------------------|
  |-------------------------------------------------------------------|
  |------------------6-6-6-6-6-6-6-6----------------------------------|
  |--3-3-3-3-3-3-3-3-6-6-6-6-6-6-6-6-6-6-6-6-6-6-6-6-6-6-6-6-6-6-6-6--| 
  |--3-3-3-3-3-3-3-3-4-4-4-4-4-4-4-4-6-6-6-6-6-6-6-6-6-6-6-6-6-6-6-6--|        
  |--1-1-1-1-1-1-1-1-----------------4-4-4-4-4-4-4-4-4-4-4-4-4-4-4-4--|        
           (8)            (8)                     (16)                     


  Pre Chorus:

                          {C}
  |--------------------------------------------------------->
  |--------------------------------------------------------->
  |--------------------------------------------------------->
  |--10-10-10-10-10-10-10-10-10-10-10-10-10-10-10-10-------->
  |--10-10-10-10-10-10-10-10-10-10-10-10-10-10-10-10-------->
  |--8--8--8--8--8--8--8--8--8--8--8--8--8--8--8--8--------->
                          (16)
                    
                          {C#}
  <---------------------------------------------------------|
  <---------------------------------------------------------|
  <---------------------------------------------------------|
  <--11-11-11-11-11-11-11-11-11-11-11-11-11-11-11-11--------|
  <--11-11-11-11-11-11-11-11-11-11-11-11-11-11-11-11--------|
  <--9--9--9--9--9--9--9--9--9--9--9--9--9--9--9--9---------|
                          (16)


                          {C}
  |--------------------------------------------------------->
  |--------------------------------------------------------->
  |--------------------------------------------------------->
  |--10-10-10-10-10-10-10-10-10-10-10-10-10-10-10-10-------->
  |--10-10-10-10-10-10-10-10-10-10-10-10-10-10-10-10-------->
  |--8--8--8--8--8--8--8--8--8--8--8--8--8--8--8--8--------->
                          (16)

           {A#}           {D#}
  <-----------------------------------|
  <-----------------------------------|
  <------------------8-8-8-8-8-8-8-8--|
  <--8-8-8-8-8-8-8-8-8-8-8-8-8-8-8-8--|
  <--8-8-8-8-8-8-8-8-6-6-6-6-6-6-6-6--|
  <--6-6-6-6-6-6-6-6------------------|
           (8)            (8)



   Chorus:

  |-------------------------------------------------------------------|
  |-------------------------------------------------------------------|
  |-------------------------------------------------------------------|
  |--6-6-6-6-6-6-6-6-6-6-6-6-6-6-6-6-3-3-3-3-3-3-3-3-3-3-3-3-3-3-3-3--|
  |--6-6-6-6-6-6-6-6-6-6-6-6-6-6-6-6-3-3-3-3-3-3-3-3-3-3-3-3-3-3-3-3--|
  |--4-4-4-4-4-4-4-4-4-4-4-4-4-4-4-4-1-1-1-1-1-1-1-1-1-1-1-1-1-1-1-1--| 


  |-------------------------------------------------------------------|
  |-------------------------------------------------------------------|
  |--3-3-3-3-3-3-3-3-3-3-3-3-3-3-3-------------------8-8-8-8-8-8-8-8-8|
  |--3-3-3-3-3-3-3-3-3-3-3-3-3-3-3-6-6-6-6-6-6-6-6-6-8-8-8-8-8-8-8-8-8|
  |--1-1-1-1-1-1-1-1-1-1-1-1-1-1-1-6-6-6-6-6-6-6-6-6-6-6-6-6-6-6-6-6-6|
  |--------------------------------4-4-4-4-4-4-4-4-4------------------|


  |-------------------------------------------------------------------|
  |-------------------------------------------------------------------|
  |-------------------------------------------------------------------|
  |--6-6-6-6-6-6-6-6-6-6-6-6-6-6-6-6-3-3-3-3-3-3-3-3-3-3-3-3-3-3-3-3--|
  |--6-6-6-6-6-6-6-6-6-6-6-6-6-6-6-6-3-3-3-3-3-3-3-3-3-3-3-3-3-3-3-3--|
  |--4-4-4-4-4-4-4-4-4-4-4-4-4-4-4-4-1-1-1-1-1-1-1-1-1-1-1-1-1-1-1-1--| 


  |-------------------------------------------------|
  |-------------------------------------------------|
  |--3-3-3-3-3-3-3-3-3-3-3-3-3-3-3-6-6-6-6-6-6-6-6-6|
  |--3-3-3-3-3-3-3-3-3-3-3-3-3-3-3-6-6-6-6-6-6-6-6-6|
  |--1-1-1-1-1-1-1-1-1-1-1-1-1-1-1-4-4-4-4-4-4-4-4-4|
  |-------------------------------------------------|



   Solo: (sorry, only figured out the chords for now)

  |-------------------------------------------------------------------|
  |-------------------------------------------------------------------|
  |-------------------------------------------------------------------|
  |--6-6-6-6-6-6-6-6-6-6-6-6-6-6-6-6-3-3-3-3-3-3-3-3-3-3-3-3-3-3-3-3--|
  |--6-6-6-6-6-6-6-6-6-6-6-6-6-6-6-6-3-3-3-3-3-3-3-3-3-3-3-3-3-3-3-3--|
  |--4-4-4-4-4-4-4-4-4-4-4-4-4-4-4-4-1-1-1-1-1-1-1-1-1-1-1-1-1-1-1-1--| 


  
  |-------------------------------------------------|
  |-------------------------------------------------|
  |--3-3-3-3-3-3-3-3-3-3-3-3-3-3-3-6-6-6-6-6-6-6-6-6|
  |--3-3-3-3-3-3-3-3-3-3-3-3-3-3-3-6-6-6-6-6-6-6-6-6|
  |--1-1-1-1-1-1-1-1-1-1-1-1-1-1-1-4-4-4-4-4-4-4-4-4|
  |-------------------------------------------------|


 
   Ending Chorus and Outro:

  |-------------------------------------------------------------------|
  |-------------------------------------------------------------------|
  |-------------------------------------------------------------------|
  |--6-6-6-6-6-6-6-6-6-6-6-6-6-6-6-6-3-3-3-3-3-3-3-3-3-3-3-3-3-3-3-3--|
  |--6-6-6-6-6-6-6-6-6-6-6-6-6-6-6-6-3-3-3-3-3-3-3-3-3-3-3-3-3-3-3-3--|
  |--4-4-4-4-4-4-4-4-4-4-4-4-4-4-4-4-1-1-1-1-1-1-1-1-1-1-1-1-1-1-1-1--| 


  |-------------------------------------------------|
  |-------------------------------------------------|
  |--3-3-3-3-3-3-3-3-3-3-3-3-3-3-3-8-8-8-8-8-8-8-8-8|
  |--3-3-3-3-3-3-3-3-3-3-3-3-3-3-3-8-8-8-8-8-8-8-8-8|
  |--1-1-1-1-1-1-1-1-1-1-1-1-1-1-1-6-6-6-6-6-6-6-6-6|
  |-------------------------------------------------|


  |----------------------------------------------------------------------|
  |----------------------------------------------------------------------|
  |----------------------------------3-3-3-3-3-3-3-3-3-8-8-8-8-8-8-8-8-8-|
  |--6-6-6-6-6-6-6-6-6-6-6-6-6-6-6-6-3-3-3-3-3-3-3-3-3-8-8-8-8-8-8-8-8-8-|
  |--6-6-6-6-6-6-6-6-6-6-6-6-6-6-6-6-1-1-1-1-1-1-1-1-1-8-8-8-8-8-8-8-8-8-|
  |--4-4-4-4-4-4-4-4-4-4-4-4-4-4-4-4-------------------------------------|
  


 (GUITAR 1):
  |-----------------------------------------------------------------------|
  |-------------{*************************}-------------------------------|
  |--5/--6/--8--{  Repeat| But on 4th time}---5/--6/--8--8h10--8\--6\--5--|
  |--x/--x/--x--{<<<  4x |  do this >>>>>>}---x/--x/--x--------x\--x\--x--| {x3}
  |--3/--4/--6--{*************************}---3/--4/--6--------6\--4\--3--|
  |-----------------------------------------------------------------------|



   (GUITAR 2): 
  |-------------------------------------------------------------------------------------------|
  |-------------------------------------------------------------------------------------------|
  |-----------------------------------------------------------6-6-6-6-6-6-6-6-8-8-8-8-8-8-8-8-|
  |-6-6-6-6-6-6-6-6-6-6-6-6-6-3-3-3-3-3-3-3-3-3-3-3-3-3-3-3-3-6-6-6-6-6-6-6-6-8-8-8-8-8-8-8-8-|
  |-6-6-6-6-6-6-6-6-6-6-6-6-6-3-3-3-3-3-3-3-3-3-3-3-3-3-3-3-3-4-4-4-4-4-4-4-4-6-6-6-6-6-6-6-6-|
  |-4-4-4-4-4-4-4-4-4-4-4-4-4-1-1-1-1-1-1-1-1-1-1-1-1-1-1-1-1---------------------------------|
               (16)                        (16)                               
 

  |---------------------|
  |---------------------|
  |---------------------|
  |--6~~~--3-3-3--6~~~--|
  |--6~~~--3-3-3--6~~~--|
  |--4~~~--1-1-1--4~~~--|

            
            
Suggest correction
Creating personal tab
Creating personal tab
You can edit any tab online and save it as your Personal.

You can edit, replace or remove any tab part or add personal notes – all changes will be seen only by you.

Personal tabs can be accessed anytime from any device, even offline.
Learn more »
comments
print report bad tab
guest
Wanna post a correction for this tab? Suggest correction