Oops, an error
Loading. Please wait.

Strip It Down chords

version 1
version 1

Whole song

36,698 views 63 this week
2 commentsread comments
1 2 3 4 5
x 15
add to favorites
×
Save as Personal and add changes to this tab that will be seen only by you. Learn more ›
×
You can save this tab as Personal to edit and correct it or add notes. All changes will be seen only by you. Learn more »
launch autoscroll
font size
0
reset
transpose
0
reset
display chords
guitar tuner
edit
Autoscroll
slow
fast
+/-
esc
set tempo
stop
Author
Difficulty
Strumming
There is no strumming pattern for this song yet. and get +5 IQ
Fifth Tab! Rate, let me know what ya think..
(hawesnate)

Standard Tuning


[INTRO]
Bm D A (x1)


[VERSE 1]
Bm
Let it fade to black
               D
Let me run my fingers down your back
A                
Lets whisper, let’s don’t talk

Baby leave my T-shirt in the hall

Bm
Like a needle finds a groove,
      D
Baby we’ll remember what to do
     A
to drown out every distraction,

it’s time we made it happen


[CHORUS]

Bm
Strip it down, strip it down
                 D
Back to you and me like it used to be
                A
When it was an old back road with an old school beat

Cowboy boots by your little bare feet
Bm
Let it out, tell me right now
               D
Everything I need In them white cotton sheets
        A
Dirty dance me slow in the summertime heat

Feel my belt turn loose from these old blue jeans
Bm                               D
We both know we lost it somehow

Let’s get it back
           A
Strip it down, down, down


[VERSE 2]
Bm
I wanna drop this cellphone now
             D
And Let it shatter on the ground
                     A
They ain’t holdin’ nothin, these two hands

’Til they’re holding you again


[CHORUS]

Bm
Oh, Strip it down, strip it down
                 D
Back to you and me like it used to be
                A
When it was an old back road with an old school beat

Cowboy boots by your little bare feet
Bm
Let it out, tell me right now
              D
Everything I need In them white cotton sheets
        A
Dirty dance me slow in the summertime heat

Feel my belt turn loose from these old blue jeans
Bm                              D
We both know we lost it somehow

Let’s get it back
           A
Strip it down down down

Strip it down down down


[INSTRUMENTAL]
Bm D A


[Verse]
Bm
I don’t wanna let you go
D
No, not tonight
         A
I just wanna love you so bad baby

So lets close our eyes


[ENDING CHORUS]

Bm
And Strip it down, strip it down
                D
Back to you and me like it used to be
                A
When it was an old back road with an old school beat

Cowboy boots by your little bare feet
Bm
Let it out, tell me right now
              D
Everything I need In them white cotton sheets
        A
Dirty dance me slow in the summertime heat

Feel my belt turn loose from these old blue jeans
Bm                              D
We both know we lost it somehow

Let’s get it back
          A
Strip it down down down

Strip it down down down


[INSTRUMENTAL:]
 Bm D 

          A 
Strip it down down down

            
            
Suggest correction
Creating personal tab
Creating personal tab
You can edit any tab online and save it as your Personal.

You can edit, replace or remove any tab part or add personal notes – all changes will be seen only by you.

Personal tabs can be accessed anytime from any device, even offline.
Learn more »
comments
print report bad tab
2 comments total.
0 reply
msh12 10 Aug 21, 2015 05:04 PM

If anyone wants those little riffs in the background, I gave it a shot:

recurring riff:
E -----------------------------------------------------------
B -----------------------------------------------------------
G ---------16----------16--18------------14------------------
D ---14----------14-----------14--12--11---------------------
A ------17----------17---------------------------------------
E -----------------------------------------------------------

@2:19
E --7/14\----------------------------------------------------
B ----------7-7-7\5-5-5-5\3-3-3------------------------------
G ------------------------------2----------------------------
D --------------------------------7/9-11p9p0-----------------
A -----------------------------------------------------------
E -----------------------------------------------------------

@3:10
E ---------12/14--16-14-17--12/14\12-------------------5/7\5-
B --12/14----------------------------14p12p10------5/7-------
G -----------------------------------------------------------
D -----------------------------------------------------------
A -----------------------------------------------------------
E -----------------------------------------------------------

E --12\9----12/14----14/17-------21\---17\---12\9------------
B -----------------------------------------------------------
G -----------------------------------------------------------
D -----------------------------------------------------------
A -----------------------------------------------------------
E -----------------------------------------------------------

0 reply
spraj201 12 Dec 14, 2016 02:51 PM

thanks for all the advice and the song

guest
You may want to rate the tab now too:
select rating
Wanna post a correction for this tab? Suggest correction