Oops, an error
Loading. Please wait.

Way Way Back solo chords

version 1
version 1

Solo

Whole song

224 views 3 this week
no commentswrite comment
1 2 3 4 5
3 more votes to show rating
add to favorites
×
Save as Personal and add changes to this tab that will be seen only by you. Learn more ›
×
You can save this tab as Personal to edit and correct it or add notes. All changes will be seen only by you. Learn more »
launch autoscroll
font size
0
reset
transpose
0
reset
display chords
guitar tuner
edit
Autoscroll
slow
fast
+/-
esc
set tempo
stop
Difficulty
intermediate
Strumming
There is no strumming pattern for this song yet. and get +5 IQ
----------------------------------------------------------------------
                        Way way back - Luke Bryan
----------------------------------------------------------------------
This is my first tab I've ever done, I learned it by ear and it soundspretty accurate to 
me. This song is off Luke Bryan's new album "Kill
The Lights", hope you enjoy playing it

Tabbed by: Emily O'Callaghan
Tuning: Standard
No capo
------------
h: hammor on
b: bend
r: release

SOLO
e|-------------------------------------------------------------------|
b|-14 13-------14 13--------------13--14 13------14 13-------------13|
g|-------15 13-------15 13--13h15----------15 13------15 13--13h15---|
d|-------------------------------------------------------------------|
a|-------------------------------------------------------------------|
e|-------------------------------------------------------------------|

e|-------------------------------------------------------------------|
b|-16 13-------16 13--------------13---16b18 16b18r---16b18----------|
g|-------15 13-------15 13--13h15------------------------------------|
d|-------------------------------------------------------------------|
a|-------------------------------------------------------------------|
e|-------------------------------------------------------------------|

            
            
Suggest correction
Creating personal tab
Creating personal tab
You can edit any tab online and save it as your Personal.

You can edit, replace or remove any tab part or add personal notes – all changes will be seen only by you.

Personal tabs can be accessed anytime from any device, even offline.
Learn more »
Give kudos to tab author, rate the tab!
1 2 3 4 5
comments
print report bad tab
guest
Wanna post a correction for this tab? Suggest correction