Oops, an error
Loading. Please wait.

Hurricane intro tab

version 1
version 1

Intro

  • This version goes deeper into the structure of the... Show more
5,149 views 165 this week
4 commentsread comments
1 2 3 4 5
x 4
add to favorites
×
Save as Personal and add changes to this tab that will be seen only by you. Learn more ›
×
You can save this tab as Personal to edit and correct it or add notes. All changes will be seen only by you. Learn more »
launch autoscroll
font size
0
reset
how to read this tab
guitar tuner
edit
Autoscroll
slow
fast
+/-
esc
set tempo
stop
Author
[Intro]
Capo 3rd Fret
all notes relative to capo

e|--0-0--0-0----0-0----------------------------------------------------------|
B|--5-5--3-3----1-0----------------------------------------------------------|
G|-------------------2/7---2h4-2~~~------------------------------------------|
D|---------------------------------------------------------------------------| x2
A|---------------------------------------------------------------------------|
E|---------------------------------------------------------------------------|

e|---------------------------------------------------------------------------|
B|---------------------------------------------------------------------------|
G|--0h2h4p0------------------------------------------------------------------|
D|----------h2---------------------------------------------------------------|
A|---------------------------------------------------------------------------|
E|---------------------------------------------------------------------------|


************************************

| h   Hammer-on
| p   Pull-off
| /   Slide up
| ~   Vibrato

************************************

            
            
Suggest correction
Creating personal tab
Creating personal tab
You can edit any tab online and save it as your Personal.

You can edit, replace or remove any tab part or add personal notes – all changes will be seen only by you.

Personal tabs can be accessed anytime from any device, even offline.
Learn more »
comments
print report bad tab
4 comments total. Showing first comments. show 1 bad comment
0 reply
da286807 39 Jul 18, 2017 10:42 PM

The notes are relative to the capo, so you should add three to each note above. For example, the first riff would be 8-8-6-6-4-3 on the b string if there was no capo.

0 reply
rawlsmd23 21 Jul 29, 2017 03:03 PM

Presumably the first fret is now the 4th and 2 is on the fifth fret as the capo is on 3.

guest
You may want to rate the tab now too:
select rating
Wanna post a correction for this tab? Suggest correction