Oops, an error
Loading. Please wait.

Its In Your Blood tab

version 3
version 3

Whole song

by Lydia
446 views 1 this week
no commentswrite comment
1 2 3 4 5
3 more votes to show rating
add to favorites
×
Save as Personal and add changes to this tab that will be seen only by you. Learn more ›
×
You can save this tab as Personal to edit and correct it or add notes. All changes will be seen only by you. Learn more »
launch autoscroll
font size
0
reset
how to read this tab
guitar tuner
edit
Autoscroll
slow
fast
+/-
esc
set tempo
stop
Author
Lead Intro: Use some reverb and a little delay
0:00-0:49
e|--0--h--7--p--0---|--9--h--10--p--9------------|
B|--10----10----10--|--10----10-----10-----------|
G|--9-----9-----9---|--9-----9------9------------|
D|------------------|----------------------------|
A|------------------|----------------------------|
E|------------------|----------------------------|
Continue strumming and hammer the 7 on and off.

Intro Rhythm: strum lightly figure out the timing.
0:00-0:49
e|-----------------------------------------------|
B|-----------------------------------------------|
G|-----------7-----------------------------------|
D|---4---7---7---7-------------------------------|
A|---4---7---5---7-------------------------------|
E|---2---5-------5-------------------------------|

Verse Rhythm: Figure out timing.
0:49-1:20               hold and end at 1:21
e|--------------------|--------------------------|
B|--------------------|--------------------------|
G|-------7-------9----|--------------------------|
D|---4---7---4---9----|---4----------------------|
A|---4---5---4---7----|---4----------------------|
E|---2-------2--------|---2----------------------|

Verse 2 Rhythm: Figure out timing.
1:25-1:57
e|-----------------------------------------------|
B|-----------------------------------------------|
G|-----------7-----------------------------------|
D|---4---7---7---7-------------------------------|
A|---4---7---5---7-------------------------------|
E|---2---5-------5-------------------------------|

Verse 3 Rhythm: Figure out timing.
1:58-2:29
e|-----------------------------------------------|
B|-----------------------------------------------|
G|-------7-------9-------------------------------|
D|---4---7---4---9-------------------------------|
A|---4---5---4---7-------------------------------|
E|---2-------2-----------------------------------|

Intro to Bridge: Play and hold each chord twice
2:30-2:46
e|-----------------------------------------------|
B|-----------------------------------------------|
G|-------7-------9-------------------------------|
D|---4---7---4---9-------------------------------|
A|---4---5---4---7-------------------------------|
E|---2-------2-----------------------------------|

Bridge: Play each chord listed twice
2:47-3:34
e|-----------------------------------------------|
B|-----------------------------------------------|
G|---2---11---9---9------------------------------|
D|---2---11---9---9------------------------------|
A|---0---9----7---7------------------------------|
E|---X-------------------------------------------|

Pick-up:
3:35-4:40
e|-----------------------------------------------|
B|-----------------------------------------------|
G|---2-------9---9-------------------------------|
D|---2---4---9---9-------------------------------|
A|---0---4---7---7-------------------------------|
E|---X---2---------------------------------------|

Outro: hold out the ~chord
4:41-5:04
e|-----------------------------------------------|
B|-----------------------------------------------|
G|---2-------9~----------------------------------|
D|---2---4---9~----------------------------------|
A|---0---4---7~----------------------------------|
E|---X---2---------------------------------------|

            
            
Suggest correction
Creating personal tab
Creating personal tab
You can edit any tab online and save it as your Personal.

You can edit, replace or remove any tab part or add personal notes – all changes will be seen only by you.

Personal tabs can be accessed anytime from any device, even offline.
Learn more »
Give kudos to tab author, rate the tab!
1 2 3 4 5
comments
print report bad tab
guest
You may want to rate the tab now too:
select rating
Wanna post a correction for this tab? Suggest correction