Oops, an error
Loading. Please wait.

Another Heaven tab

73 views 1 this week
no commentswrite comment
1 2 3 4 5
3 more votes to show rating
add to favorites
×
Save as Personal and add changes to this tab that will be seen only by you. Learn more ›
×
You can save this tab as Personal to edit and correct it or add notes. All changes will be seen only by you. Learn more »
launch autoscroll
font size
0
reset
how to read this tab
guitar tuner
edit
Autoscroll
slow
fast
+/-
esc
set tempo
stop
[Intro] 
(Guitar I)

e|--------2-----------------2--------|---------2-----------------2--------|
B|--------3-----------------2--------|---------3-----------------2--------|
G|--------0-----------------2--------|---------0-----------------2--------|
D|--------2-----------------0--------|---------2-----------------0--------| (Present until bridge)
A|-----2--2-----2--------0--0-----2--|------2--2-----2--------0--0-----2--|
E|--0-----------------2--------------|---0-----------------2--------------|


[Intro] 
Piano (Tabbed for guitar - optional) - Guitar II

e|-----------------------------|-----------------------------------|------------------|---------------------|
B|--12-----------10\8--7\5/10--|-----------7h10--7h10--7h10--7h10--|------------------|---------------------|
G|------6--7-------------------|--6--4-----------------------------|--6--------6h7p6--|---------------------|
D|-----------------------------|-----------------------------------|-----7------------|---------------------|
A|-----------------------------|-----------------------------------|------------------|-----------2/4-------|
E|-----------------------------|-----------------------------------|------------------|--2--3--2-------5----|
                                                                                                           
e|-----------------------------|--------------------------------------|--12--------------|-------------------|
B|--12-----------10\8--7\5/10--|--14----------------------------------|------------------|-------------------|
G|------6--7-------------------|------11---11h12--11h12--11h12--11h12-|----11-----6h7/9--|-------------------|
D|-----------------------------|--------------------------------------|------------------|-------------------|
A|-----------------------------|--------------------------------------|------------------|-----------2/4-----|
E|-----------------------------|--------------------------------------|------------------|--2--3--2-------5--|


[Intro]
Guitar III

e|------------------------------|------------------------------------|
B|---------------------3/5--3---|------------------------------------|
G|-------4--2-----2/4-----------|-------4--2-----2/4/6---------------|
D|--2/4-------------------------|--2/4------------------7------------|
A|------------------------------|------------------------------------|
E|------------------------------|------------------------------------|
                                                                    
e|-------------------------------------|-----------------------------|
B|-------------------3-----2h3/5--3h5--|--5b7b8--8br5p3--5--3--------|
G|-------2-----4--2--------------------|-----------------------2-----|
D|--2/4--------------------------------|--------------------------4--|
A|-------------------------------------|-----------------------------|
E|-------------------------------------|-----------------------------|

This section begins at the second stave of the Guitar II section.


[Instrumental]

e|--2--2--2--2--2--2--2--2--|--2--2--2--2--2--2--2--2--|
B|--3--3--3--3--3--3--3--3--|--2--2--2--2--2--2--2--2--|
G|--0--0--0--0--0--0--0--0--|--2--2--2--2--2--2--2--2--|
D|--2--2--2--2--2--2--2--2--|--0--0--0--0--0--0--0--0--| x4
A|--2--2--2--2--2--2--2--2--|--0--0--0--0--0--0--0--0--|
E|--0--0--0--0--0--0--0--0--|--2--2--2--2--2--2--2--2--|

This section comes in after the second verse is finished, during the "brass and gold" part.
It is played with a 1/16 swung rhythm. 


[Bridge]

e|--4--4--4--4--4--4--4--4-|-2--2--2--2--2--2--2--2-|-7--7--7--7--7--7--7--7-|-6--6--6--6--6--6--6--7--6-|
B|--4--4--4--4--4--4--4--4-|-2--2--2--2--2--2--2--2-|-7--7--7--7--7--7--7--7-|-6--6--6--6--6--6--6--7--6-|
G|--4--4--4--4--4--4--4--4-|-2--2--2--2--2--2--2--2-|-7--7--7--7--7--7--7--7-|-6--6--6--6--6--6--6--7--6-|
D|--2--2--2--2--2--2--2--2-|-0--0--0--0--0--0--0--0-|-5--5--5--5--5--5--5--5-|-4--4--4--4--4--4--4--5--4-|
A|-------------------------|------------------------|------------------------|---------------------------|
E|-------------------------|------------------------|------------------------|---------------------------|

e|--4--4--4--4--4--4--4--4-|-2--2--2--2--2--2--2--2-|-7--7--7--7--7--7--7--7-|-9---------------------9/2-|
B|--4--4--4--4--4--4--4--4-|-2--2--2--2--2--2--2--2-|-7--7--7--7--7--7--7--7-|-9---------------------9/2-|
G|--4--4--4--4--4--4--4--4-|-2--2--2--2--2--2--2--2-|-7--7--7--7--7--7--7--7-|-9---------------------9/2-|
D|--2--2--2--2--2--2--2--2-|-0--0--0--0--0--0--0--0-|-5--5--5--5--5--5--5--5-|---------------------------|
A|-------------------------|------------------------|------------------------|---------------------------|
E|-------------------------|------------------------|------------------------|---------------------------|


[Verse Reprise]

e|--2--2--2--2--2--2--2--2--|--2--2--2--2--2--2--2--2--|
B|--3--3--3--3--3--3--3--3--|--2--2--2--2--2--2--2--2--|
G|--0--0--0--0--0--0--0--0--|--2--2--2--2--2--2--2--2--|
D|--2--2--2--2--2--2--2--2--|--0--0--0--0--0--0--0--0--| x8
A|--2--2--2--2--2--2--2--2--|--0--0--0--0--0--0--0--0--|
E|--0--0--0--0--0--0--0--0--|--2--2--2--2--2--2--2--2--|


[Solo]

e|----------------------------------------------------------------------|
B|----------------------------------------------------------------------|
G|----------------------------------------------------------------------|
D|----------------------------------------------------------------------|
A|--4--5-----4-----------------------------------2/4/5\4--4h5/7\5--5/9--|
E|--------------5--5/2-----2--3--2--0--2--3/5/7-------------------------|

e|---------------------------------------------------2/10---------------|
B|--------------------------10b12-----12br10--8--7---------7h8p7--------|
G|--------7--9b11-----9b11----------------------------------------9-----|
D|--7--9----------------------------------------------------------------|
A|----------------------------------------------------------------------|
E|----------------------------------------------------------------------|

e|--2/10--9----------------------------------12--12--12--10--10--10--9--|
B|-----------12--10~---14b15br14b15br14--12-----------------------------|
G|----------------------------------------------------------------------|
D|----------------------------------------------------------------------|
A|----------------------------------------------------------------------|
E|----------------------------------------------------------------------|

e|----------------------------------------------------------------------|
B|-------8--7----------------------------------------7--10b12--14b15b14-|
G|--7h9----------------------------------------7--9---------------------|
D|-------------4--------------7--7/9--11--7h9---------------------------|
A|----------------5----4h5/7--------------------------------------------|
E|----------------------------------------------------------------------|

e|----------------------------------------------------------------------|
B|-14b15--15--15br14--14b15--15--15br14b15--15--15br14--14b15br14-15br14|
G|-14b16--16--16br1---14b16--16--16br14b16--16--16br14--14b16br14-16br14|
D|----------------------------------------------------------------------|
A|----------------------------------------------------------------------|
E|----------------------------------------------------------------------|

e|----------------------------------------------15--14------------------|
B|--7h8p7--------------------7----10h12--14b15----------15----14--14\2--|
G---------9--7h9p7\6--4h6/7---------------------------------------------|
D|----------------------------------------------------------------------|
A|----------------------------------------------------------------------|
E|----------------------------------------------------------------------|

e|----------------------------------------------------------------------|
B|--2/12----14--14----12----10h12--14b15br14b15br14---------------------|
G|---------------------------------------------------14-----------------|
D|----------------------------------------------------------------------|
A|----------------------------------------------------------------------|
E|----------------------------------------------------------------------|

e|---------------------------------------------------------------------------------|
B|--2/12----12h14b15br14----14h15/17--15h17b19b20br19br17--19--14h15p14------------|
G|-----------------------------------------------------------------------14\12\11--|
D|---------------------------------------------------------------------------------|
A|---------------------------------------------------------------------------------|
E|---------------------------------------------------------------------------------|

************************************

| h   Hammer-on
| p   Pull-off
| b   Bend
| br  Bend release
| /   Slide up
| \   Slide down
| ~   Vibrato

************************************ 

            
            
Suggest correction
Creating personal tab
Creating personal tab
You can edit any tab online and save it as your Personal.

You can edit, replace or remove any tab part or add personal notes – all changes will be seen only by you.

Personal tabs can be accessed anytime from any device, even offline.
Learn more »
Give kudos to tab author, rate the tab!
1 2 3 4 5
comments
print report bad tab
guest
Wanna post a correction for this tab? Suggest correction