Oops, an error
Loading. Please wait.
We have an official Sweet Home Alabama tab made by UG professional guitarists. Check out the tab »
×
43,656 views 30 this week
2 commentsread comments
1 2 3 4 5
x 10
add to favorites
×
Save as Personal and add changes to this tab that will be seen only by you. Learn more ›
×
You can save this tab as Personal to edit and correct it or add notes. All changes will be seen only by you. Learn more »
launch autoscroll
font size
0
reset
guitar tuner
backing track
0:00
0:00
edit
Autoscroll
slow
fast
+/-
esc
set tempo
stop
Intro

G|-----7-|-----5-|-------|------------|
D|-------|-------|-----5-|--575-------|
A|-5-5---|-3-3---|-------|57---75-3/5-|
E|-------|-------|-3-3---|------------| 

G|-----7-|-----5-|-------|----7-------|
D|-------|-------|-----5-|75---575----|
A|-5-5---|-3-3---|-------|--75--------|
E|-------|-------|-3-3---|------------|

Its easier just to go from the last D to the open D string
...but either way is fine

G|-----7-|-----5-|-------|------------|
D|-------|-------|-----5-|--575-------|
A|-5-5---|-3-3---|-------|57---75-3/5-|
E|-------|-------|-3-3---|------------| 

G|-----7-|-----5-|-------|------------|
D|-0-0---|-------|-----5-|--57-5------|
A|-------|-3-3---|-------|57----7-----|
E|-------|-------|-3-3---|------------|

These wheels keep...

G|-----7-|-----5-|-------|------------|
D|-------|-------|-----5-|--575-------|
A|-5-5---|-3-3---|-------|57---75-3/5-|
E|-------|-------|-3-3---|------------| 

G|-----7-|-----5-|-------|------------|
D|-0-0---|-------|-----5-|------------|
A|-------|-3-3---|-------|------------|
E|-------|-------|-3-3---|------------|

G|-----7-|-----5-|-------|------------|
D|-0-0---|-------|-----5-|--578-------|
A|-------|-3-3---|-------|57----------|
E|-------|-------|-3-3---|------------|

G|-----7-|-----5-|-------|------------|
D|-0-0---|-------|-----5-|-----5------|
A|-------|-3-3---|-------|------------|
E|-------|-------|-3-3---|-3-3--------|

Careful! This is where it changes!
..and just hold the D at the end

G|----7-7-5-|----5-5-5-5-|---------|------|
D|---5------|------------|----5----|------|
A|-57-------|-35---------|---3-----|------|
E|----------|------------|-35------|------|

G|----7-7-5-|----5-5-5-5-|---------|------|
D|---5------|------------|----55---|5-----|
A|-57-------|-35---------|---3-----|-3/5--|
E|----------|------------|-35------|------|

Then it goes back.

When I heard...

G|-----7-|-----5-|-------|------------|
D|-------|-------|-----5-|--575-------|
A|-5-5---|-3-3---|-------|57---75-3/5-|
E|-------|-------|-3-3---|------------| 

G|-----7-|-----5-|-------|------------|
D|-0-0---|-------|-----5-|------------|
A|-------|-3-3---|-------|------------|
E|-------|-------|-3-3---|------------|

G|-----7-|-----5-|-------|------------|
D|-0-0---|-------|-----5-|--55-5------|
A|-------|-3-3---|-------|35----3-----|
E|-------|-------|-3-3---|------------|

G|-----7-|-----5-|-------|------------|
D|-------|-------|-----5-|--575-------|
A|-5-5---|-3-3---|-------|57---75-3/5-|
E|-------|-------|-3-3---|------------|

Sweet haome Alabama...

G|-----7-|-----5-|-------|------------|
D|-0-0---|-------|-----5-|--353-------|
A|-------|-3-3---|-------|35---53-----|
E|-------|-------|-3-3---|------------|

G|-----7-|-----5-|-------|------------|
D|-5-5---|-------|-----5-|-3----------|
A|-------|-3-3---|-------|----5-------|
E|-------|-------|-3-3---|------------|

The rest is all using the riffs here.

If you need to know the order add me or message me or something 
along those lines and I'll do the rest.






            
            
Suggest correction
Creating personal tab
Creating personal tab
You can edit any tab online and save it as your Personal.

You can edit, replace or remove any tab part or add personal notes – all changes will be seen only by you.

Personal tabs can be accessed anytime from any device, even offline.
Learn more »
comments
print report bad tab
2 comments total.
+2 reply
Bmanv12 10 Jun 01, 2009 07:51 AM

i love this tab good job! its a whole lot better than the other ones.

+1 reply
[]i9 131 Nov 18, 2009 07:45 PM

It might be what you want to play, but it's not even close to being accurate. The song plays just the chords not the main riff.

guest
You may want to rate the tab now too:
select rating
Wanna post a correction for this tab? Suggest correction