Oops, an error
Loading. Please wait.
We have an official Sweet Home Alabama tab made by UG professional guitarists. Check out the tab »
×
5,316 views 81 this week
3 commentsread comments
1 2 3 4 5
x 10
add to favorites
×
Save as Personal and add changes to this tab that will be seen only by you. Learn more ›
×
You can save this tab as Personal to edit and correct it or add notes. All changes will be seen only by you. Learn more »
launch autoscroll
font size
0
reset
transpose
0
reset
simplify chords
display chords
guitar tuner
backing track
0:00
0:00
edit
Autoscroll
slow
fast
+/-
esc
set tempo
stop
Author
Difficulty
Strumming
There is no strumming pattern for this song yet. and get +5 IQ
Sweet Home Alabama - Lynyrd Skynyrd - Ukulele

Intro:

A-|-------5p0-------5p0-------2p0------5-7-5------|
E-|---------------------3----------5h7-------(7)--|
C-|--2-2------2p0-0-------2-2---------------------|
G-|-----------------------------------------------|

A-|-------5p0-------5p0-------2p0----------------------|
E-|---------------------3----------7-----8-----9---10--|
C-|--2-2------2p0-0-------2-2--------7-7---7-7---7-----|
G-|----------------------------------------------------|

A-|-------5p0-------5p0-------2p0------5-7-5-------5--|
E-|---------------------3----------5h7-------7-5-7----|
C-|--2-2------2p0-0-------2-2-------------------------|
G-|---------------------------------------------------|

A-|-------5p0-------5p0-------2p0--------5--|
E-|---------------------3------------5-7----|
C-|--2-2------2p0-0-------2-2------7--------|
G-|-----------------------------------------|

Verse:

D    Cadd9          G       G
 Big wheels keep on turning 
D         Cadd9          G       G
 Carry me home to see my kin 
D        Cadd9           G          G
 Singing songs about the Southland 
D          Cadd9      G                      G
 I miss Alabamy once again and I think its a sin, yes 

A-|--------5---------3-3-------2------|  |---------|
E-|------5---5-------3-3-----3---3----|  |----2----|
C-|--4/6-------6/4-4-----2h4-------4--|x2|--2------|
G-|-----------------------------------|  |------2--|

D                    Cadd9       G       G
 Well I heard mister Young sing about her 
D                  Cadd9        G       G
 Well, I heard ole Neil put her down 
D                  Cadd9         G       G
 Well, I hope Neil Young will remember 
D           Cadd9                G           G
 A Southern man don't need him around anyhow 

Chorus:

D      Cadd9   G       G
 Sweet home Alabama
D           Cadd9       G   G
 Where the skies are so blue
D      Cadd9   G       G
 Sweet Home Alabama 
D          Cadd9          G       G
 Lord, I'm coming home to you 

The Solos are on the G Scale

At the end of some lines you can add an end of the intro riffs...
For Example:
A-|-----5-7-5------|
E-|-5h7-------(7)--|
C-|----------------|
G-|----------------|

            
            
Suggest correction
Creating personal tab
Creating personal tab
You can edit any tab online and save it as your Personal.

You can edit, replace or remove any tab part or add personal notes – all changes will be seen only by you.

Personal tabs can be accessed anytime from any device, even offline.
Learn more »
comments
print report bad tab
3 comments total.
0 reply
blackcatscooter 43 Jul 02, 2015 08:56 PM

Tab incomplete. The song is incomplete. Nothing else to say really, but I have to have twenty words to submit a review.

0 reply
GeorgeWeston 364 Jul 05, 2015 09:56 AM

i will complete when i have time...the chords are the same for every verse and chorus

0 reply
BradHarr15 10 Apr 30, 2017 06:23 PM

its a good start for the tabs to the song... if u dont like em do it yourself

guest
You may want to rate the tab now too:
select rating
Wanna post a correction for this tab? Suggest correction