Oops, an error
Loading. Please wait.

That Smell tab

version 3
version 3

Whole song

Interactive

12,388 views 3 this week
1 commentread comment
1 2 3 4 5
x 7
add to favorites
×
Save as Personal and add changes to this tab that will be seen only by you. Learn more ›
×
You can save this tab as Personal to edit and correct it or add notes. All changes will be seen only by you. Learn more »
launch autoscroll
font size
0
reset
how to read this tab
guitar tuner
backing track
0:00
0:00
edit
Autoscroll
slow
fast
+/-
esc
set tempo
stop
Author
Difficulty
Gtr I (E A D G B E) - 'Gary Rossington - Rhythm w/dist'
Gtr II (E A D G B E) - 'Allen Collins - Rhythm / Lead w/dist'
Gtr III (E A D G B E) - 'Steve Gaines - Rhythm w/dist'
Gtr IV (E A D G B E) - 'Steve Gaines - Lead w/dist'

Intro
  Q=116
 4/4
  Gtr II
                   |-3-|
   Q   S S e S S e S S S E
|--5-----------------------|
|--5-----------------------|
|--5------------5-5--------|
|--7------------5-5h7p5----|
|--7------3-5s7---------7-|
|--5--3s5------------------|
|
| Gtr I
|                  |-3-|
|  Q   S S e S S e S S S E
|--8-----------------------|
|-10-----------------------|
|--9------------5-5--------|
|----------------5-5h7p5----|
|----------3-5s7---------7-|
|------3s5------------------|



  E E    +Q    +E  +E  E  E   +Q   E E a E E   Q
|---------------------------|-------------------------|
|---------------------------|-------------------------|
|---7b9==(7)---(7)r(7)-5----|-------------------------|
|-------------------------7-|-(7)--5------------------|
|---------------------------|----------7s5-3----------|
|---------------------------|------------------5------|
|
|                         ~~~~~~~~
| Q       E  E  E   E  E  E   +Q   e E   E S s S S E
|---------1-----------------|-------------------------|
|---------1-----------------|------1---------1--------|
|---------2------------x--2-|-(2)--2-----0-2-2---0----|
|---------------x------x--2-|-(2)--------0-2----------|
|-3-------------x---3--x--0-|-(0)------------------2--|
|-1-------------x---1-------|-------------------------|
|
|Gtr III
| Q       Q     Q.        E   +W
|---------1--------------^0-|-(0)---------------------|
|---------1--------------^1-|-(1)---------------------|
|---------2--------------^2-|-(2)---------------------|
|---------3--------------^2-|-(2)---------------------|
|---------3--------------^0-|-(0)---------------------|
|-1-------1-----------------|-------------------------|
|-Riff A                                   end Riff A-|


w/Riff A x3
   E  E    +Q     E   +E  E  E
|---------------------------------|
|---------------------------------|
|-----7b9==(7)r---7b9r(7)p5--7b9==|
|---------------------------------|
|---------------------------------|
|---------------------------------|
|
|  Q        E   E E    E  E  E
|-----------1---------------------|
|-----------1---------------------|
|-----------2---------------------|
|-(3)------------------2-----2----|
|--3-------------------3-----0----|
|---------------------------------|


                                                                         ~~~~~~
  +E  +E     +S  +S     +S  +S     +S  +S     +S  +S  E E      H        +H
|-----------------------------------------------------------|--------------|
|-----------------------------------------------------------|--------------|
|-(7)r(7)b9==(7)r(7)b9==(7)r(7)b9==(7)r(7)b9==(7)r(7)p5-7s==|=14---([14])--|
|-----------------------------------------------------------|--------------|
|-----------------------------------------------------------|--------------|
|-----------------------------------------------------------|--------------|
|
|                                              ~~~~                               ~~
| +Q          E          E          e          Q        S S    Q  E E    E   E E  E
|-------------0---------------------------------------------|-----1--------|
|-------------1---------------------------------------------|-----1--------|
|-------------2---------------------0----------2------------|-----2--xx--2-|
|-(2)-------------------------------0----------2--------2p0-|--------xx--2-|
|-(0)-------------------------------------------------------|--3---------0-|
|-----------------------------------------------------------|--1---------1-|


                                                            ~~~~~~~~~~~~
                              |---3---|
   +q    S  S  E    +Q        S  S    S  e   Q   S  E.     +H
|------------------------------------------|---------------------------|
|-------13s15s13---(13)--------------------|-----x---------------------|
|-(14)--12s14s12---(12)------12h14p==12----|----12-14----([14])--------|
|---------------------------------------14-|---------------------------|
|------------------------------------------|---------------------------|
|------------------------------------------|---------------------------|
|
|  +Q    E.      S   S S S S  S    S     E   Q   E     E    E   E e  E
|------------------------------------------|-----1---------------------|
|--------------------------1---------------|-----1-------------------1-|
|--(2)---x-------2---------2-------0-------|-----2----------x--------2-|
|--(2)---x-------2---0h2-2-----------------|-3--------------x---3----2-|
|--(0)-----------------------------------2-|-3------------------3----0-|
|------------------------------------------|--------------------1-0----|


 ~~~~~~                 ~~~~                                ~~~~~~~~~
   +Q    +E       +E   +Q    +E       +E     +E       +E   +Q    +H
|-----------------------------------------|--------------------------------|
|-----------------------------------------|--------------------------------|
|-(14)--(14)b16==(14)r(14)--(14)b16==(14)r|=(14)b16==(14)r(14)--(14)-------|
|-----------------------------------------|--------------------------------|
|-----------------------------------------|--------------------------------|
|-----------------------------------------|--------------------------------|
|
|                                         Gtrs II, III
|  +W                                        +H                   E. S E E
|-----------------------------------------|--------------------------------|
|--(1)------------------------------------|--(1)------------------1--------|
|--(2)------------------------------------|--(2)------------------2--x-----|
|--(2)------------------------------------|--(2)------------------2----0---|
|--(0)------------------------------------|--(0)------------------0------2-|
|-----------------------------------------|--------------------------------|


 Verses
  $
  $$
	w/Fill 1 second time & Fill 3 third time Fills
  Gtr I
               ~~~~~~~~~~
  Q  E E E E E E     +Q   E S S S S S S S S E
|----1-------------|--------------------------|
|----1-------------|------1-------------------|
|----2---x---x-----|------2---2-------2---0---|
|-3--3---x---x-2---|-(2)--2-----0h2-2---------|
|-3------------0---|-(0)--------------------2-|
|----------1-------|--------------------------|
|
| Gtr III
|                     ~~~       PM--|
| Q  E E E E e S S    Q   Q     S S E   E   E
|----1-------------|--------------------------|
|-1--1-------------|--------------------------|
|-2--2-------------|------2-----------------0-|
|-3--3-------------|------------2-2-2---x-----|
|-3------------0-0-|--0-----------------------|
|------1-1-1-1-----|--------------------------|

                 |-substitute Rhy Fill 1 second time  Fills
               ~~~~~~~~            ~~~~~~~
  Q  E E E E E E   +Q       E  E e E +E. S
|----1-----------|----------0---------------|
|----1-----------|----------1---------------|
|-2--2---x-----2-|-(2)------2----0-2-(2)p0--|
|-3------x-----2-|-(2)-----------0-2-(2)p0--|
|----------3---0-|-(0)----------------------|
|----------------|--------------------------|
|
| Q  Q   Q   E E    S  E.  +H.
|----------------|--8-----------------------|
|----------------|--8h10--(10)--------------|
|-2------------9-|--9-----------------------|
|----3---3-------|--------------------------|
|----------------|--------------------------|
|----------------|--------------------------|


                   ~~~~~~~~
  Q  E E  E  E  E  E   +Q   E S S S S S S  S  S E
|----1---------------|----------------------------|
|----1---------------|------------------1---------|
|----2----x----------|------2---2-0-----0-----0---|
|-3--3----x----(x)-2-|-(2)--2-----0h2-2-----------|
|-3----------3-----0-|-(0)----------------------2-|
|------------1-------|----------------------------|
|
|                       ~~~
| Q  Q   +Q     E  E   +Q   Q     E   S S +E    E
|----1---(1)----1----|----------------------------|
|----1---(1)----1----|------------------1-(1)-----|
|----2---(2)----2----|------2---------------------|
|-3--3---(3)----3----|------------2---x---------2-|
|-3----------------0-|-(0)------------------------|
|--------------------|----------------------------|


                 ~~~~~~~~
  Q  E E E  E  E E   +Q   E. S S S E e E
|------------------|-----------------0----||
|----1-------------|-----------------1----||
|----2---x-------2-|-(2)--x--2-x-x--------||
|----3---x--3--x-2-|-(2)--x--2-x-x--------||
|-3---------3----0-|-(0)-----------0------||
|----------(1)-----|-------------------0--||
|
| Q  E E E  E  E E    Q   H.
|------------------|----------------------||
|----1-------------|----------------------||
|----2-------------|--2---2---------------||
|-3------3--3--3-2-|--2---2---------------||
|-3------3--3--3-0-|--0-------------------||
|------1-----------|----------------------||


 Chorus
                 ~~~~~~~~
  Q  E E E  E E  E   +Q   E  S  S S S S S S S E
|------------------|------0---------------------|
|----1-------------|------1---------------------|
|----2---x-------2-|-(2)--2-------2-----2-------|
|-3--3---x--3----2-|-(2)----(x)-x-0h2-2-2---0---|
|-3---------3----0-|-(0)----------------------2-|
|-1---------1------|----------------------------|
|-Rhy Fig C (both Gtrs inc Fill 2)
|
| Q  E E Q.      E   +W
|----1----------^0-|-(0)------------------------|
|----1----------^1-|-(1)------------------------|
|----2----------^2-|-(2)------------------------|
|----3----------^2-|-(2)------------------------|
|----3----------^0-|-(0)------------------------|
|-1--1-------------|----------------------------|
|-Rhy Fig 1                       end Rhy Fig 1-|


  Q  E E E E E E   +Q   e E  E  Q   E
|----------------|--------------------|
|----1-----------|--------------1---x-|
|----2---x-0---2-|-(2)--2----0--2-----|
|----3---x-0---2-|-(2)--2-x--0--2-----|
|-3--------2---0-|-(0)--0-------------|
|-1--------3-----|--------------------|
|
| Q  E E E E E E   +H        E  Q.
|----1-----3---0-|-(0)----------0-----|
|----1-----3---1-|-(1)-------0--1-----|
|----2-----0---2-|-(2)-------0--2-----|
|----3-----0---2-|-(2)-------0--2-----|
|----3---------0-|-(0)----------0-----|
|-1--1-----3-----|--------------------|
|
|                Gtr IV
|                               ~~~
| W                 H        E  Q.
|----------------|--------------------|
|----------------|----------12--------|
|----------------|----------12-14-----|
|----------------|-------------14-----|
|----------------|--------------------|
|----------------|--------------------|
                 |-Fill 2

                                                           To Coda
                                                    To Double Coda
                    ~~~~~~~~
    Q   E E E  E E  E   +Q   E S S S S S S S S E   Q  e E E E E E   +W
|-------1-------------|------0-------------------|----1-----------|--------|
|-------1-------------|------1---1-------1-------|-1--1---------1-|-(1)----|
|---2---2---x-------2-|-(2)----x---2-----2---0---|-2--2---x-0---2-|-(2)----|
|---3---3---x--3----2-|-(2)----x---0h2-2-2-------|-3------x-0---2-|-(2)----|
|---3----------3----0-|-(0)--------------------2-|-3----3---2---0-|-(0)----|
|---1----------1------|--------------------------|-1--------------|--------|
|                                                            end Rhy Fig C-|
|
|   Q   E E Q.      E   +W                         Q  E E E E E E   +W
|-------1----------^0-|-(0)----------------------|----1-----3---0-|-(0)----|
|-------1----------^1-|-(1)----------------------|----1-----3---1-|-(1)----|
|-------2----------^2-|-(2)----------------------|----2-----0---2-|-(2)----|
|-------3----------^2-|-(2)----------------------|----3-----0---2-|-(2)----|
|-------3----------^0-|-(0)----------------------|----3---------0-|-(0)----|
|---1---1-------------|--------------------------|-1--1-----3-----|--------|
|
|   ~~~~
|  +W
|---------------------|
|---------------------|
|-(14)----------------|
|-(14)----------------|
|---------------------|
|---------------------|
           end Fill 2-|


                                Guitar Solo
  Gtr II
                                 ~
  E   +E  e E   +E  e   S S E    Q  a E e S   +S  S S S S  S S
|-----------------------------||-------------------------------|
|-----------------------------||---------------------------5---|
|-----------------------------||--------5-7b9r(7)p5---5h7----5h|
|-----------------------------||-3--5s7-------------7----------|
|-5b6r(5)-3-5b6r(5)-3---5p3s2-||-------------------------------|
|-----------------------------||-------------------------------|
|
| Gtr I
| Q       Q      E.   S Q        Q    E E e       E   E    E
|-----------------------------||------1---1--------------------|
|-1-------1------1----1-1-----||------1---1----------------5---|
|-2-------2------2----2-2-----||------2---2-----------x----5---|
|-2-------2------2----2-2-----||------3---3-----------x----7---|
|-0-------0------0----0-0-----||-3----------------3--------7---|
|-----------------------------||-1----------------1--------5---|
|                              |-Rhy Fig 2
| Gtr III
| Q       E E    E.   S Q
|-0-------0-0----0----0-0-----||
|-1-------1-1----1----1-1-----||
|-2-------2-2----2----2-2-----|| w/Rhy Fig 1 x4
|-2-------2-2----2----2-2-----||
|-0-------0-0----0----0-0-----||
|-----------------------------||


                        |---3---|
   S  S S S S  S S S   +S  S    s  S S E   E
|----------------------------------------------|
|----------------------------------------------|
|--7----5--------------------------------------|
|-----7---5h7----5-----------------------------|
|--------------7---5b6r(5)s3-------5p3-----3---|
|------------------------------(5)-----5-------|
|
| +Q        E.     S    S    S     S S S S E
|------------------5----x----x---------5-5-----|
|-(5)-------5------5----x----x---------5-5-x---|
|-(5)-------5------5----x----x---------5-5-----|
|-(7)-------7----------------------7-7---------|
|-(7)-------7----------------------7-7---------|
|-(5)-------5----------------------------------|
                                 end Rhy Fig 2-|

w/Rhy Fig 2 x3
  |-3-| |---3---|
  E E E E a E   E     +E   E   S    +S   S S
|--------------------------8--------------------|
|---------5s6---8b10==(8)-(8)r-8b10r(8)--5------|
|-----5-7----------------------------------7b9==|
|---7-------------------------------------------|
|-8---------------------------------------------|
|-----------------------------------------------|



                                                       ~~
  +S   S E   S  E   S E     S S    +S  S S S   S S  E  Q   S   S  S S  s  S  S  S
|-------------------5-------8----------------|------------8---10p8-12p=8---|
|------5-----8-------------------------------|---8-10-10-----10---10---10--|
|-(7)r---7b9----7b9---7b9-----7pb9r(7)p5---5s|=9---------------------------|
|----------------------------------------7---|-----------------------------|
|--------------------------------------------|-----------------------------|
|--------------------------------------------|-----------------------------|



   S  S s  S S   S  S S S  S S  S  S S S  S
|-10p=8---12p8-----10p8---12p8----10p8---12p|
|-------8-------10------8------10------8----|
|-------------------------------------------|
|-------------------------------------------|
|-------------------------------------------|
|-------------------------------------------|



                                                                   D.S. al Coda
                                                   ~~~
  S  S  S S S  S S  S  S S S  S      +E   +s  S    Q    E  S S  E   E   E   E
|-8----10p8---12p8----10p8---10b12==(10)r(10)p8-|--------------------------|
|---10------8------10------8--------------------|-10---10------10s==8---8s==6-||
|-----------------------------------------------|----------7s9--9s==7---7s==5---||
|-----------------------------------------------|--------------------------||
|-----------------------------------------------|-------------------------------||
|-----------------------------------------------|-------------------------------||



  &
  Gtrs I, III
                ~~~
  +W           +W
|------------|--------||
|-(1)--------|-(1)----||
|-(2)--------|-(2)----||
|-(2)--------|-(2)----||
|-(0)--------|-(0)----||
|------------|--------||


 Bridge
  Gtr III
  E E E E +E. S +E  E   Q  E E +E  Q  E   E E E E +E  Q  S S   W
|-------0-(0)---------|----5------------|-------0-(0)--------|------|
|-----1-------1-(1)---|------5-(5)------|-----1-------1------|-5----|
|---2-----------------|------------5----|---2----------------|-5----|
|-3-----------------3s|=7-------------7s|=3--------------3s7-|------|
|---------------------|-----------------|--------------------|------|
|---------------------|-----------------|--------------------|------|
|
| Gtr IV
| <                     <                 <                    <
| W                     W                 W                    W
|-1-------------------|-0---------------|-1------------------|-0----|
|-1-------------------|-1---------------|-1------------------|-1----|
|-2-------------------|-2---------------|-2------------------|-2----|
|-3-------------------|-2---------------|-3------------------|-2----|
|---------------------|-0---------------|--------------------|-0----|
|---------------------|-----------------|--------------------|------|
|-Rhy Fig 3                                           end Rhy Fig 3-|
|
| Gtr I
| ~~~~~~~~~~~~~~~~~~~~~~~~~~~~~~~~~~~~~~~~~~~~~~~~~~~~~~~~~~~~~~~
| W                     W                 W                    W
|-0-------------------|-0---------------|-0------------------|-0----|
|-1-------------------|-1---------------|-1------------------|-1----|
|-2-------------------|-2---------------|-2------------------|-2----|
|-3-------------------|-2---------------|-3------------------|-2----|
|-0-------------------|-0---------------|-0------------------|-0----|
|---------------------|-----------------|--------------------|------|
|-Rhy Fig 3A                                         end Rhy Fig 3A-|


w/Rhy Fig 3 + 3A
  E E E E +E  Q  E   Q  E E E. S +E  e
|-------0-(0)------|----5------5-(5)---|
|-----1-------1----|------5-8----------|
|---2--------------|-----------------5-|
|-3--------------3s|=7-----------------|
|------------------|-------------------|
|------------------|-------------------|


                              Gtrs I, II
  E E E E +E  Q  E   W          a Q  a Q  a Q  a E e
|-------0-(0)------|-0--------|------------------------||
|-----1-------1----|-1--------|------------------------||
|---2------------2-|-2--------|-0h2--0h2--0h2--0h2-----||
|------------------|-2--------|-0h2--0h2--0h2--0h2-----||
|------------------|-0--------|--------------------2---||
|------------------|----------|------------------------||


 Chorus
 w/Rhy Fig C (Gtr II section)
  Gtr I
                 ~~~~~~~~
  Q  E E E  E E  E   +Q   E S S S S S S S S E   Q  E E E E E E
|----1---x---------|--------------------------|----0-----------|
|----1---x---------|------1-------------------|----1-----------|
|----2-------------|------2-x-2-------2---0---|----x-----0---2-|
|-3--3------3-x--2-|-(2)--------0h2-2-2---0---|-3------3-0---2-|
|-3---------3----0-|-(0)--------------------2-|-3----3-3-2---0-|
|-1---------1------|--------------------------|----------------|



   ~~~       ~~                        ~~~
  +Q   E E E Q   +E     Q  E E E  E E  E
|---------------------|----1-------------|
|---------------------|----1-x-x---------|
|-(2)--2---0-2---(2)-|----2---x-------2-|
|-(2)--2-x-0-2---(2)-|-3---------3----2-|
|-(0)-----------------|-3---------3----0-|
|---------------------|-1---------1------|



 ~~~~~
  +Q   E S S S S S S S S E   Q  E E E E E E
|------0-x-x---------------|----1-----------|
|------1-x-x-------1-------|----1-----------|
|-(2)--------2-----2---0---|----2-----0---2-|
|-(2)--------0h2-2---------|----------0---2-|
|-(0)--------------------2-|-3----3---2---0-|
|--------------------------|----------------|



                                    Guitar Solo
  Gtr II
                                             ~~~~~~~~~~~~~~
   Q   E.    S S  E.       +Q         Q      Q        +Q      E     +S  S
|--------------8-10b12====(10)r---||-10b12--10b12====(10)r---10b12r(10)p8-|
|-----------10--------------------||--------------------------------------|
|---------------------------------||--------------------------------------|
|---------------------------------||--------------------------------------|
|---------------------------------||--------------------------------------|
|---------------------------------||--------------------------------------|
|
| Gtr I
| +Q   E  E    E        E   E   E     Q      E     E   E   E  E      E
|---------------------------------||--------------------------------------|
|---------------------------------||-(1)----------------------------------|
|-(2)--x--------------------------||-(2)---------------x---4---------5----|
|-(2)--x--0----x--------0---x-----||--3------x-----3---x---5-(x)-----7----|
|-(0)-----2-------------2-------0-||--3------x-----3-------5---------7----|
|---------3-------------3---------||--1------------1-------3---------5----|
|                                  |-Rhy Fig 4
| Gtr III
| +Q.     E    E        E   E   e     Q      E     E   E   E  E      E
|-(0)-----3----3--------3---3---3-||--1------1-----1---x---3---------0----|
|-(1)-----3----3--------3---3---3-||--1------1-----1---x---3---------1----|
|-(2)-----0----0--------0---0---0-||--2------2-----2---x---0---------2----|
|-(2)-----0----0--------0---0---0-||--3------3-----3---x---0---------2----|
|-(0)-----------------------------||--3------3-----3---x-------------0----|
|---------3----3--------3---3---3-||--1------1-----1---x---3--------------|
                                   |-Rhy Fig 4A

   S   S S  S S S S S S S S S S S     +E
|-10--10p8----8-8s7---7-7s5---5------------|
|----------10-------8-------8---8b10==(8)r-|
|------------------------------------------|
|------------------------------------------|
|------------------------------------------|
|------------------------------------------|
|
|  Q          E   E   E   E   E        E
|------------------------------------------|
|------------------------------------------|
|-(5)--------------------------------------|
|--7----------x-------x-------x--------3---|
|--7----------x---7---x---5---x--------3---|
|--5--------------5-------3------------1---|
|                            end Rhy Fig 4-|
|
|  E     E    E   E   E   E   E        E
|--0-----0----0---0---x---3------------1---|
|--1-----1----1---1---x---3------------1---|
|--2-----2----2---2---x---0------------2---|
|--2-----2----2---2---x---0------------3---|
|--0-----0----0---0---x----------------3---|
|-------------------------3------------1---|
                            end Rhy Fig 4A-|


w/Rhy Fig 4 + 4A x6
   |-3--|          |-3-|                 |-3--|
   S  S S S S E    S S S S S S     +S    S  S S S S
|--5---------------5---------------------5----------|
|-----8p5---5-8b10---8p5---5-8b10==(8)r-----8p5---5-|
|---------7--------------7----------------------7---|
|---------------------------------------------------|
|---------------------------------------------------|
|---------------------------------------------------|


        |-3-|
   E    S S S S S E     +E   S S S S S S
|-------5---------8b10==(8)r-8p5-8-8p5---|
|--8b10---8p5---5----------------------8-|
|-------------7--------------------------|
|----------------------------------------|
|----------------------------------------|
|----------------------------------------|


      ~~~~~                                         ~                     ~~~~
   S  E.    +E   S S S S E  S   +S  S S    S  S S S E S S S S S S S S    +E
|--5-------------5----------------------|-------------------------------------|
|-----8b10==(8)r---8-5---5--------------|-------------------------------------|
|----------------------7----7b9r(7)p5---|--7--7p5---5-------------5h7b9==(7)r-|
|-------------------------------------7-|---------7---7p5---5-5h7-------------|
|---------------------------------------|-----------------7-------------------|
|---------------------------------------|-------------------------------------|


                                    Gtrs II, IV
      ~~~~~~~~~~~
   E  E     +Q     S S S S  e  E      +E  E    E     E  H
|--5---------------5-----------8b10r|=(8)-----------------------------|
|--5--8b10==(8)r-----8p5----5-------|-----8b10------------------------|
|------------------------7----------|----------7-----5--2-----2b5==2r-|
|-----------------------------------|----------7b10====(7)r-----------|
|-----------------------------------|---------------------------------|
|-----------------------------------|---------------------------------|
                                       Q       Q       +Q     E    E


  Gtr IV
                ~~~~                   ~~~~~~~~~~~~~~~
   Q    Q      +Q      E   +S  S    S  E.   +Q    +E  S S S S S S
|--------------------------------|--------------------------------|
|--------------------------------|------------------------0---0---|
|--2b5--2b5====(2)r----2b5r(2)p0-|--2---------------------0h2p0---|
|--------------------------------|-----5----(5)---(5)-0h2-------2-|
|--------------------------------|--------------------------------|
|--------------------------------|--------------------------------|


   ~~~~~~~~~~~~~~~~                      ~~~~~~~~~~~~~
   S  E. +Q    +E   S S  S  S   +S  S    H        +E  S S S S S S
|-------------------------------------|---------------------------|
|-------------------------------------|---------------------------|
|--0h=2--(2)---(2)----5--7--7b9r(7)p5-|-----------------5-7p5---5-|
|------------------/7-----------------|--7--------(7)-7-------7---|
|-------------------------------------|---------------------------|
|-------------------------------------|---------------------------|



               ~~~~~~~~~                                              ~~~~
   E.  +S     +Q    +E  S S  S  S S S    S  S S S S S S a  S  +Q     +Q
|-------------------------------------|---------8p5---5--------------------|
|-------------------------------------|--8p=5-------5---8s10-(10)---(10)---|
|--7b9r(7)b9==(7)---(7)-7p5--7p=5---5-|-------5----------------------------|
|---------------------------------7---|------------------------------------|
|-------------------------------------|------------------------------------|
|-------------------------------------|------------------------------------|


       ~~~~~~~                 ~~~~~~~~~~
   S   E.  E.   S  Q       S   E.      Q  E     +E   S S S S S S E
|--8------------8-10b12----8--------|----------------5--------------|
|--8--10--10------------------10----|-10--8b10==(8)r-5-8-5----------|
|-----------------------------------|----------------------8-7p5----|
|-----------------------------------|----------------------------7-|
|-----------------------------------|-------------------------------|
|-----------------------------------|-------------------------------|
|
|                                   Gtrs II, III
|  Q       E  E    E    E  E      E    Q  Q          E   E   Q
|-----------------------------------|--0--0----------0---0---0------|
|-(1)-------------------------------|--1--1----------1---1---1------|
|-(2)--------------x----4---------5-|--2--2----------2---2---2------|
|--3-------x--3----x----5-(x)-----7-|--2--2----------2---2---2------|
|--3-------x--3---------5---------7-|--0--0----------0---0---0------|
|--1----------1---------3---------5-|-------------------------------|
|
|  Q       E  E    E    E  E      E
|--1-------1--1----x----3---------0-|
|--1-------1--1----x----3---------1-|
|--2-------2--2----x----0---------2-|
|--3-------3--3----x----0---------2-|
|--3-------3--3----x--------------0-|
|--1-------1--1----x----3-----------|


  Gtrs I, IV
  E S S E E +E  E S S E   E E E E Q   E S  S
|-----------------------|---------------------|
|-----------------------|---------------------|
|-5---------------------|---3-3---------------|
|-5-----5-5-(5)-------5-|-x-3-3-3-3---3-5s=7--|
|-3-5s7---5-(5)-------5-|-x-1-1-3-3---3-------|
|---------3-(3)-3-5s7---|---1-1-1-1---1-0-(0)-|
|
| Gtrs II, III
| E E   E E +H            E E E Q   E E E
|-----------------------|---------------------|
|-----------------------|---------------------|
|-5---------------------|---3-3---------------|
|-5-------5-(5)---------|---3-3-3---3-3-------|
|-3-------5-(5)---------|---1-1-3---3-3-------|
|---------3-(3)---------|---1-1-1---1-1-------|


   ~~~               ~~~~
  +Q   E E Q  E E    E  E E  S  S  E  E  E  E
|-----------------|---------------------------|
|-----------------|---------------------------|
|-------------5h7-|--7s=9-9s12-12-12s14-14s16-|
|-(7)--7p5-7------|-------------------------0-|
|--0--------------|-(0)---------------------0-|
|-----------------|---------------------------|
|  W                +H..                    E
|
|                 Gtr III
|  W                 Q    E  E     E  E  E  e
|-----------------|-------0--0-----0--0--0----|
|-----------------|-------1--1-----1--1--1--0-|
|-----------------|-------2--2-----2--2--2--0-|
|-----------------|-------2--2-----2--2--2--0-|
|-----------------|-------0--0-----0--0--0----|
|-----------------|---------------------------|


  E S S E E +E  E S S E   E E E E Q  E E    Q   E  E  Q   E  E
|-----------------------|----------------|-------------------------|
|-----------------------|----------------|---------------13h15b17==|
|-5---------------------|---3-3--------5s|=14--14p12-14------------|
|-5-----5-5-(5)-------5-|-x-3-3-3-3--3---|-------------------------|
|-3-5s7---5-(5)-------5-|-x-1-1-3-3--3---|--0----------------------|
|---------3-(3)-3-5s7---|---1-1-1-1--1-0-|-------------------------|
|                                           W
|
| Gtrs II, III                           Gtr III
| E E   E E +H            E E E E Q  E E    Q   Q     Q   Q
|---------3-(3)---------|----------------|--0---0-----0---0--------|
|-5-------3-(3)---------|----------------|--1---1-----1---1--------|
|-5-------0-(0)---------|---3-3----------|--2---2-----2---2--------|
|-5-------0-(0)---------|---3-3-3-3--3---|--2---2-----2---2--------|
|-3---------------------|---1-1-3-3--3---|--0---0-----0---0--------|
|---------3-(3)---------|---1-1-1-1--1---|-------------------------|


                      |--3--|     |--3--|
   +E   E  E  S  +S   S  S  S  E  S  S  S  E
|------15-15-15------12h15p12----12h15p12------|
|-(15)-------15r(15)----------15----------15---|
|----------------------------------------------|
|----------------------------------------------|
|--(0)-----------------------------------------|
|----------------------------------------------|
|  +W
|
|   <
|   E   E  E  E       E        E  e        E
|---0---0--0--0-------0------------------------|
|---1---1--1--1-------1-----------0------------|
|---2---2--2--2-------2-----------0------------|
|---2---2--2--2-------2-----------0------------|
|---0---0--0--0-------0------------------------|
|----------------------------------------------|


w/Rhy Fig 1 x4
  Gtr IV
              ~~~~~~
   E     +E   Q        +E   +E   E  E    +E   E  E  E    E    E    E    E
|-------------------------------------|------12-12------12---12-----------|
|-15b17r(15)-15b17====(15)r(15)p13----|------15-15------15---15-----------|
|----------------------------------14-|-(14)-14-14--x---14---14---12-----|
|-------------------------------------|---------------------------------0-|
|-------------------------------------|-----------------------------------|
|-------------------------------------|-----------------------------------|
|
| Gtr I
|  Q          E     E   E    E   E  E    +Q      E.   S  s S  S S  S  S E
|-------------1-----------------------|---------------5--5---------5--5---|
|-------------1---------------------5-|--(5)-----5----5--5---------5--5---|
|-------------2---------x-----------5-|--(5)-----5-------5-x-------5--5---|
|--3----------3---------x----3---x--7-|--(7)-----7------------------------|
|--3-------------------------3------7-|--(7)------------------7-7---------|
|--1-------------------------1------5-|--(5)------------------------------|
|-Rhy Fig 5                                                 end Rhy Fig 5-|

w/Rhy Fig 5 x3
  E    +E   E    +E   E   +E  E      E   +E  E S E S E   S   +S  +E    E
|--------------------------------------|----------------------------------|
|--------------------------------------|----------------------------------|
|-7b9==(7)r-7b9==(7)r-7b9r(7)-5b5.5----|----------------------------------|
|------------------------------------7-|-(7)-5----------------------------|
|--------------------------------------|-------7s5-3-5---5b6r(5)-(5)p==3--|
|--------------------------------------|----------------------------------|



  S   +S     +E  +Q    +E  +E  E a  E   +Q   E  E   Q       E   E
|-------------------------------------|------------------------------|
|-------------------------------------|------------------------------|
|-------------------------------------|------5--7-----------5---7b9==|
|--------------------------------5s=7-|-(7)---------7----------------|
|-5b6r(5)b6==(5)-(5)---(5)r(5)p3------|------------------------------|
|-------------------------------------|------------------------------|



                                          D.S.S. al Dbl. Coda
  +E  +E  Q       +E  +E  E  E   +E  E S E S E   E   E   E
|------------------------------|------------------------------||
|------------------------------|------------------------------||
|-(7)r(7)s9b11====(9)r(9)-5----|------------------------------||
|----------------------------7-|-(7)-5------------------------||
|------------------------------|-------7s5-3-5---3------------||
|------------------------------|---------------------5---3---||



  &&
  Gtr II
   W                    W                   Q.     E      +E    +E    E   E
|---------------------|------------------|-------------------------------------|
|---------------------|------------------|-------------------------------------|
|---------------------|------------------|---------7b9====(7)r==(7)p==5---7b9==|
|---------------------|------------------|-------------------------------------|
|---------------------|------------------|-------------------------------------|
|---------------------|------------------|-------------------------------------|
|
| Gtr III
|                                      ~~~~~~~~
|  W                    Q  E E E  E E  E   +Q   E  S    S  S  S  S  S S S E
|---------------------|------------------|------0------------------------------|
|---------------------|----1-------------|------1------------------------------|
|---------------------|----2---x-------2-|-(2)--2----------2--------2----------|
|---------------------|-3--3---x--3----2-|-(2)----(x)---x--0h=2--2--2---0------|
|---------------------|-3---------3----0-|-(0)----------------------------2----|
|---------------------|-1---------1------|-------------------------------------|
|
| Gtr I
|  E  E S S E E E E e   Q  E E Q.      E   +W
|---------------------|----1----------^0-|-(0)---------------------------------|
|-(1)-1-1---3-3-3-3---|----1----------^1-|-(1)---------------------------------|
|-(2)-2-2p0-0-0-0-0-0-|----2----------^2-|-(2)---------------------------------|
|-(2)-2-2---0-0-0-0-0-|----3----------^2-|-(2)---------------------------------|
|-(0)-0-----2-2-2-2---|----3----------^0-|-(0)---------------------------------|
|-----------3-3-3-3---|-1--1-------------|-------------------------------------|


   ~~~~~~~~~~~~~~~~~~~~~~~
  +W                 +Q    S    +S  E  Q   E S S
|------------------|--------------------------------|
|------------------|--------------------------------|
|-(7)--------------|-(7)r--7pb9r(7)-----------------|
|------------------|-------------------------5s7----|
|------------------|----------------7-(5)--3--------|
|------------------|--------------------------------|
|
|  Q   E E E E E E   +Q    E        E  Q   Q
|------1-----3---0-|-(0)---x---------------0--------|
|------1-----3---1-|-(1)---x-----------0---1--------|
|------2-----0---2-|-(2)---x-----------0---2--------|
|------3-----0---2-|-(2)---x-----------0---2--------|
|------3---------0-|-(0)---x---------------0--------|
|--1---1-----3-----|----------------0---------------|
|
|  Q   E E E E E E   +Q    E        E  Q   Q
|------1-----3---0-|-(0)---x---------------0--------|
|------1-----3---1-|-(1)---x-----------0---1--------|
|------2-----0---2-|-(2)---x-----------0---2--------|
|------3-----0---2-|-(2)---x-----------0---2--------|
|------3---------0-|-(0)---x---------------0--------|
|--1---1-----3-----|----------------0---------------|


   ~~~~~~~~~~~~~~~~~~~~~~~~                           ~~~
  +W                   +Q   +E  +E     E    E    E    E
|--------------------|----------------------------------|
|--------------------|--------------------------13------|
|--------------------|---------------------12--------14-|
|-(7)----------------|-(7)--(7)-(7)s==14----------------|
|--------------------|----------------------------------|
|--------------------|----------------------------------|
|
|                  ~~~~~~~~
|  Q   E E E  E E  E   +Q    E   S  S  S S  S S  S S  E
|------1-------------|-------0--------------------------|
|------1-------------|-------1------1---------1---------|
|--2---2---x-------2-|-(2)-------x-----2------2----0----|
|--3---3---x--3----2-|-(2)-------x-----0h2--2-2---------|
|--3----------3----0-|-(0)----------------------------2-|
|--1----------1------|----------------------------------|
|
|  Q   E E Q.      E   +W
|------1----------^0-|-(0)------------------------------|
|------1----------^1-|-(1)------------------------------|
|------2----------^2-|-(2)------------------------------|
|------3----------^2-|-(2)------------------------------|
|------3----------^0-|-(0)------------------------------|
|--1---1-------------|----------------------------------|


 ~~~~~~
   +W                  +Q    +E  E  E  E  E  E
|-------------------|--------------------------||
|-------------------|-----------------13-15----||
|-(14)--------------|-(14)--(14)S2s14-------14-||
|-------------------|--------------------------||
|-------------------|--------------------------||
|-------------------|--------------------------||
|
|   Q   e E E E E E    +W
|-------1-----------|--------------------------||
|---1---1---------1-|--(1)---------------------||
|---2---2---x-0---2-|--(2)---------------------||
|---3-------x-0---2-|--(2)---------------------||
|---3-----3---2---0-|--(0)---------------------||
|---1---------------|--------------------------||
|
|   Q   E E E E E E    +W
|-------1-----3---0-|--(0)---------------------||
|-------1-----3---1-|--(1)---------------------||
|-------2-----0---2-|--(2)---------------------||
|-------3-----0---2-|--(2)---------------------||
|-------3---------0-|--(0)---------------------||
|---1---1-----3-----|--------------------------||


 Guitar Solo
 w/Rhy Fig 4 + 4A x8
  Gtr II
          ~~~~~~~~~~~~~~
   Q      Q        +Q      E      +S   S
|-15b17--15b17====(15)r---15pb17r(15)p12-|
|----------------------------------------|
|----------------------------------------|
|----------------------------------------|
|----------------------------------------|
|----------------------------------------|


   Q     S  S  S  S  S  S  S  S  S  S  S  S
|-15----15p12-15-15p12-15-15p12-15-15p12-15-|
|-------------------------------------------|
|-------------------------------------------|
|-------------------------------------------|
|-------------------------------------------|
|-------------------------------------------|



   S   S  S  S  S  S  S  S  S  S  S  S  S   S  E    Q     E  E  +E   E  E  E
|-15p=12-15-15p12-15-15p12-15-15p12-15-15p=12----|---------------------------|
|---------------------------------------------13-|-13----13-13-(13)-13-13-13-|
|------------------------------------------------|-14----14-14-(14)-14-14-14-|
|------------------------------------------------|---------------------------|
|------------------------------------------------|---------------------------|
|------------------------------------------------|---------------------------|



   E   E  E  E  Q     E  E   +E  E E E E E E E
|--------------------------|-------------------|
|-13--13-13-13-13----8--8-|-(8)-8-8-----------|
|-14--14-14-14-14----9--9-|-(9)-9-9s7-7s5-5s2-|
|--------------------------|-------------------|
|--------------------------|-------------------|
|--------------------------|-------------------|


  Gtr II
   Q   S S E +E  E +S   E      S
|--------------------------------|
|------------------------------5-|
|--2---2p0-2-(2)s7-(7)-(7)b9-----|
|--------------------------------|
|--------------------------------|
|--------------------------------|



 Gtr IV
   H                  E.      S  S      +S    E
|----------------------------17--------------17---|
|--------------------20b22------20b22==(20)r------|
|-------------------------------------------------|
|-------------------------------------------------|
|-------------------------------------------------|
|-------------------------------------------------|
|
|  E    +E   E.    S  E.      S  E.             S
|-------------------------------------------------|
|------------------5----------5-----------------5-|
|--7b9==(7)r-7b9------7b9--------7b9--------------|
|-------------------------------------------------|
|-------------------------------------------------|
|-------------------------------------------------|



   E.    S  E     S  S  E.      S  E.      S
|-------17-------17-17---------17---------17-|
|-20b22----20b22-------20b22------20b22------|
|--------------------------------------------|
|--------------------------------------------|
|--------------------------------------------|
|--------------------------------------------|
|
|  E.    S  E.       S  Q          E.      S
|--------------------------------------------|
|--------5-----------5---------------------5-|
|--7b9------7b9---------7b9--------7b9-------|
|--------------------------------------------|
|--------------------------------------------|
|--------------------------------------------|



   E     S  S  Q         Q       E.      S
|-------17-17---------------------------17-|
|-20b22-------20b22-----20b22---20b22------|
|------------------------------------------|
|------------------------------------------|
|------------------------------------------|
|------------------------------------------|
|
|  Q           E.     S  Q       E.      S
|------------------------------------------|
|---------------------5------------------5-|
|--7b9---------7b9-------7b9-----7b9-------|
|------------------------------------------|
|------------------------------------------|
|------------------------------------------|



   E          S  S  Q              E         S   S  S      +S   E
|------------17-17--------------------------17--17----------------|
|-20b22------------20b22----------20b22------------20pb22r(20)-17-|
|-----------------------------------------------------------------|
|-----------------------------------------------------------------|
|-----------------------------------------------------------------|
|-----------------------------------------------------------------|
|
|  S    +E.         S    +E     S  S    +S  +E      E           E
|-----------------------------------------------------------------|
|-------------------------------5---------------------------------|
|--7b9==(7)r--------7b9==(7)r------7b9==(7)r(7)p====5-------------|
|-----------------------------------------------------------------|
|---------------------------------------------------------------0-|
|-----------------------------------------------------------------|



   E   E     E     E     E     E     E  E
|----------------------------------------------|
|-20--20b22-20b22-20b22-20b22-20b22-20-20pb22==|
|----------------------------------------------|
|----------------------------------------------|
|----------------------------------------------|
|----------------------------------------------|
|
| +W
|----------------------------------------------|
|----------------------------------------------|
|----------------------------------------------|
|----------------------------------------------|
|-(0)------------------------------------------|
|----------------------------------------------|



           ~~~~~
   +E.  S  E.      S  S  S  S  S  S   S  S  S
|-----------------17-------17--------17-------|
|-(20)r---20b22------17-------17h20-----17h20-|
|-------x---------------20--------------------|
|---------------------------------------------|
|---------------------------------------------|
|---------------------------------------------|
|
|  +W
|---------------------------------------------|
|---------------------------------------------|
|---------------------------------------------|
|---------------------------------------------|
|--(0)----------------------------------------|
|---------------------------------------------|



   S   S  S  S  S  S  S  S  S  S  S  S  S  S  S  S
|-17--------17-------17-------17-------17-------17-|
|-----17h20----17h20----17h20----17h20----17h20----|
|--------------------------------------------------|
|--------------------------------------------------|
|--------------------------------------------------|
|--------------------------------------------------|



   S   S  S  S  S  S  S  S  S  S  S  S  S   S  S  S
|-20p=17----20p17----20p17----20p17----20p=17----20p|
|--------17-------17-------17-------17--------17----|
|---------------------------------------------------|
|---------------------------------------------------|
|---------------------------------------------------|
|---------------------------------------------------|
|



   S   S  S  S  S  S  S  S  S  S  S  S  S  S  E
|-17-----20p17----20p17----20p17----20p17----20---|
|-----17-------17-------17-------17-------17------|
|-------------------------------------------------|
|-------------------------------------------------|
|-------------------------------------------------|
|-------------------------------------------------|
|
|Gtr II
|  H                        Q           E     S S
|-------------------------------------------------|
|---------------------------------------------6---|
|---------------------------------------------7s9-|
|-------------------------------------------------|
|-------------------------------------------------|
|-------------------------------------------------|


  Gtr I
	|-Rhy Fig 6
  F5VIII               G5III         AmV
   Q      E  E     E    E  E          E
   |      |  |     |    |  |          |
   /      x  /     /    /  x          /
  Gtr IV
          ~~~~~~~~~~~~
   Q      Q       +Q       S  +E.
|-20b22--20------(20)-----20-(20)b22----|
|---------------------------------------|
|---------------------------------------|
|---------------------------------------|
|---------------------------------------|
|---------------------------------------|
|
| Gtr II
|  ~~~~~                   ~~
|  H           a   S S  E  Q
|---------------------------------------|
|--8------------------------------------|
|--9-----------9s==7p5-----5------------|
|-----------------------7---------------|
|---------------------------------------|
|---------------------------------------|
|
| Gtr III
|  Q      E  E     E    E  E          E
|---------------------------------------|
|---------------------------------------|
|-10------x-10----10S==12--x---------14-|
|-10------x-10----10S==12--x---------14-|
|--8------x--8-----8S==10--x---------12-|
|---------------------------------------|
|-Rhy Fig 6A

                                  end Rhy Fig 6-|
                           GIII             F5
   Q             E    E  E  E   E            E
   |             |    |  |  |   |            |
   /             x    /  /  /   /            /
                 ~~~~~~~~~~~
   E        +E   Q       Q      S      +E.
|-20pb22r==(20)-20------20-----20b22==(20)r----|
|----------------------------------------------|
|----------------------------------------------|
|----------------------------------------------|
|----------------------------------------------|
|----------------------------------------------|
|
|                     ~~~~~~
|  S     S   E   S S  E +E  Q                E
|----------------------------------------------|
|----------------------------------------------|
|---------------------5-(5)--------------------|
|--7p====5-------5h7--------7-----------------|
|------------7---------------------------------|
|----------------------------------------------|
|
|  Q             E    E  E  E   E            E
|----------------------------------------------|
|----------------------------------------------|
|-14-------------x---14-14s12--12s==========10-|
|-14-------------x---14-14s12--12s==========10-|
|-12-------------x---12-12s10--10s===========8-|
|----------------------------------------------|
                                end Rhy Fig 6A-|

w/Rhy Fig 6 + 6AA x6.5
                 ~~~~~~~~~~~
                                 |---3---|
     E      +E   Q       Q       S  S    S  E
|---20pb22r(20)-20------20------17h20p==17----|
|------------------------------------------20-|
|---------------------------------------------|
|---------------------------------------------|
|---------------------------------------------|
|---------------------------------------------|
|
|    ~~~~~~~                                ~~~
| a  H                a  S S  E  S    S     E
|---------------------------------------------|
|-6s=8----------------------------------------|
|-7s=9----------------9s=7p5-----5h===7-----5-|
|-----------------------------7---------------|
|---------------------------------------------|
|---------------------------------------------|


   ~~~
   H.                   Q
|-17-------------------20b22------|
|---------------------------------|
|---------------------------------|
|---------------------------------|
|---------------------------------|
|---------------------------------|
|
|~~~~~            ~~~
| +E  S S E  S S  Q     E     S S
|---------------------------------|
|---------------------------------|
|-(5)-------------5-----------7s9-|
|-----7p5----5h7--------7---------|
|---------7-----------------------|
|---------------------------------|


               ~~~~~~~~~~~~~~~
   E      +E   Q           Q       S      +E.
|-20pb22r(20)-20----------20------20b22==(20)r------|
|---------------------------------------------------|
|---------------------------------------------------|
|---------------------------------------------------|
|---------------------------------------------------|
|---------------------------------------------------|
|
|  E       E   S  E.    a  S S  E  E           +E
|---------------------------------------------------|
|--8-----------8h10---------------------------------|
|----------9------------9s=7p5-----7b9=========(7)r-|
|-------------------------------7-------------------|
|---------------------------------------------------|
|---------------------------------------------------|


                   ~~~~~~~~~~
   E        +E     Q     +Q               S      +E.
|-20pb22r==(20)---20----(20)-------------20b22==(20)r----|
|--------------------------------------------------------|
|--------------------------------------------------------|
|--------------------------------------------------------|
|--------------------------------------------------------|
|--------------------------------------------------------|
|
|                  ~~
|  S     S   S  S  Q      S S  S    +S    Q
|-----------------------------------------5--------------|
|--------------------------------------------------------|
|--5-----7p==5-----5--------5--7b9==(7)r-----------------|
|---------------7---------7------------------------------|
|--------------------------------------------------------|
|--------------------------------------------------------|


                    ~~~~~~~~~~
                                 |-----3------|
   E           +E   Q      Q     S     S      S  E
|-20pb22r=====(20)-20-----20----17h===20p====17----|
|-----------------------------------------------20-|
|--------------------------------------------------|
|--------------------------------------------------|
|--------------------------------------------------|
|--------------------------------------------------|
|
|         ~~~~~~~~~~~~~
|  S     +E.       +Q      E  E  S       +S      E
|--------------------------5-----------------------|
|--8b10==(8)r------(8)--------8--------------------|
|--------------------------------7pb9r===(7)p====5-|
|--------------------------------------------------|
|--------------------------------------------------|
|--------------------------------------------------|


   ~~
   H        E  S  S  S  S  E
|-17-------------------------|
|-------------------------13-|
|-------------------12h14----|
|-------------12h14----------|
|----------------------------|
|----------------------------|
|
|  ~~~~~~~~~~~~
|  H       +E  S  S  S  S  e
|----------------------------|
|-------------------------17-|
|-------------------17-19----|
|--7-------(7)17-19----------|
|----------------------------|
|----------------------------|


          ~~~~~~~~~~~~~~~                       ~~~~~~~~~~~~~
                             |-----3------|
   Q      Q         +Q       Q           +E     H        +E  S  S  S  S  E
|--------------------------------------------|-----------------------------|
|-15b17--15b17=====(15)r----15b17r======(15)-|--------------------------13-|
|--------------------------------------------|-14-------(14)------12h14----|
|--------------------------------------------|--------------12h14----------|
|--------------------------------------------|-----------------------------|
|--------------------------------------------|-----------------------------|
|
|         ~~~~~~~~~~~~~~~                       ~~
|  Q      Q         +Q       E      +E          H         E  S  S  S  S  e
|--------------------------------------------|-----------------------------|
|-20b22--20b22=====(20)r----20pb22r(20)------|-17-----------------------17-|
|--------------------------------------------|--------------------17-19----|
|--------------------------------------------|--------------17-19----------|
|--------------------------------------------|-----------------------------|
|--------------------------------------------|-----------------------------|


          ~~~~~~~~~~~~~~~
   Q      Q         +E    a      +S      +S   E  E
|-----------------------------------------------15b17=========|
|-15b17--15b17=====(15)r-15b17==(15)r===(15)p13---------------|
|------------------------15b16==(15)r-------------------------|
|-------------------------------------------------------------|
|-------------------------------------------------------------|
|-------------------------------------------------------------|
|
|         ~~~~~~~~~~~~~~~
|  Q      Q         +E            S      +S   E  S      S
|------------------------------------------------------20b22==|
|-20b22--20b22=====(20)r---------20pb22r(20)p17---------------|
|-------------------------------------------------------------|
|-------------------------------------------------------------|
|-------------------------------------------------------------|
|-------------------------------------------------------------|


   +Q     S      +S    e      s  E     S  S  S  S  S
|-(15)r--15b17r=(15)--12-----15-15----12-15p12----12-|
|----------------------------------------------15----|
|----------------------------------------------------|
|----------------------------------------------------|
|----------------------------------------------------|
|----------------------------------------------------|
|
|  +Q     S      +S   +S   S  S  E     S  S  S  S  S
|-(20)r--20b22==(20)r(20)p17-20-20p===17-20p17-17-17-|
|----------------------------------------------------|
|----------------------------------------------------|
|----------------------------------------------------|
|----------------------------------------------------|
|----------------------------------------------------|


   S  S  S  S  Q           S  S  S  S  Q
|-------------------------------------------------|
|-13p12-------------------15p13-------------------|
|-------14p12-------------------16p14-------------|
|-------------------------------------------------|
|-------------------------------------------------|
|-------------------------------------------------|
|
|  Q           S  S  S  S  Q           S  S  S  S
|-------------------------------------------------|
|-------------13p12-------------------15p13-------|
|-------------------14p12-------------------16p14-|
|-------------------------------------------------|
|-------------------------------------------------|
|-------------------------------------------------|


   S  S  S  S  Q           S  S  S  S  S  a  S  S  S
|------------------------------------------------------|
|-17p15-------------------18p17-------20-20p18-17------|
|-------17p16-------------------19-17-------------19---|
|------------------------------------------------------|
|------------------------------------------------------|
|------------------------------------------------------|
|
|                                               ~~~~~~~
|                                               |-3--|
|  Q           S  S  S  S  S  S  S  S  S     S  E    S
|------------------------------------------------------|
|-------------17p15-------18p17-------20p===18-17----x-|
|-------------------17p16-------19-17------------------|
|------------------------------------------------------|
|------------------------------------------------------|
|------------------------------------------------------|


   Q      Q        E     S  S  E     S  S
|-----------------------17-17-------17-17-|
|-20b22--20b22----20b22-------20b22-------|
|-----------------------------------------|
|-----------------------------------------|
|-----------------------------------------|
|-----------------------------------------|
|
|  Q      Q        E     S  S  E.       S
|-----------------------17-17----------17-|
|-20b22--20b22----20b22-------20b22-------|
|-----------------------------------------|
|-----------------------------------------|
|-----------------------------------------|
|-----------------------------------------|


                                             G
   Q           Q           E     E     E       S      S
   |           |           |     |     |       |      |
   /           /           /     /     /       o      /
   E     S  S  E     S  S  E     E     E      +E
|-------17-17-------17-17----------------------------------||
|-20b22-------20b22-------20b22-20b22-20b23==(20)r--------||
|----------------------------------------------------------||
|----------------------------------------------------------||
|----------------------------------------------------------||
|----------------------------------------------------------||
|
|                                      ~~~~~~
|  E     S  S  E     S  S  E     E     E.            +S
|-------17-17-------17-17----------------------------------||
|-20b22-------20b22-------20b22-20b22-20b22=========(20)r-||
|----------------------------------------------------------||
|----------------------------------------------------------||
|----------------------------------------------------------||
|----------------------------------------------------------||
|
|  Q           Q           Q           Q
|----------------------------------------------------------||
|----------------------------------------------------------||
|-14----------14----------14----------14-------------------||
|-14----------14----------14----------14-------------------||
|-12----------12----------12----------12-------------------||
|----------------------------------------------------------||

 Outro
  C       G                 Bb5 F5
  Gtrs I, III
  E E   E E +H            E E E E Q  E E   W
  |       |  |              | | | |  |
  /       /  /              / / / /  /
  Gtrs II, IV
                                           ~~
  E S S E E +E  E S S E   E E E E Q  E E   S E. E E Q  E E
|-----------------------|----------------|------------------|
|-----------------------|----------------|------------------|
|-5---------------------|---3-3----------|-------------5h7--|
|-5-----5-5-(5)-------5-|-x-3-3-3-3--3-3-|-5s7--7p5-7-------|
|-3-5s7---5-(5)-------5-|-x-1-1-3-3--3---|-0----------------|
|---------3-(3)-3-5s7---|---1-1-1-1--1-0-|------------------|
                                           W

        Am                 C       G
   Q    E  E  E  E  E  e   E E   E E +H
        |  |  |  |  |  |   |       |  |
        /  /  /  /  /  /   /       /  /
   ~~~~
   E  E E  E  E  E  E  E   E S S E E +E  E S S E
|------------------------|-----------------------|
|------------------------|-----------------------|
|--7s=9-9s12-12s14-14s16-|-5---------------------|
|------------------------|-5-----5-5-(5)-------5-|
|-(0)------------------3-|-3-5s7---5-(5)-------5-|
|----------------------3-|---------3-(3)-3-5s7---|
  +H..                 E
	
	
    Bb5 F5         Am        G  Am
  Gtrs I, III
  E E E E Q  E E    Q    q    E  Q.      +H      +H
    | | | |  |      |    |    |  |        |       |
    / / / /  /      /    /    /  /        /       /
  Gtr II
                                 ~~~~~~~~~~~~~~~~~~~~
  E E E E Q  E E    Q    q    E  Q.      +H      +H
|----------------|--------------------|-----------------*|
|----------------|-(1)--(1)-----------|-----------------*|
|---3-3----------|--2----2----0--2----|--(2)-----(2)----*|
|-x-3-3-3-3--3---|--2----2------------|-----------------*|
|-x-1-1-3-3--3---|--0----0------------|-----------------*|
|---1-1-1-1--1---|--------------------|-----------------*|
|
| Gtr IV
|                                ~~~~~~~~~~~~~~~~~~~~
| W                 Q    q    E  Q.      +H      +H
|----------------|--------------------|-----------------*|
|----------------|-13---13---12-13----|-(13)----(13)----*|
|----------------|-14---14---12-14----|-(14)----(14)----*|
|----------------|-14---14---12-14----|-(14)----(14)----*|
|----------------|--------------------|-----------------*|
|----------------|--------------------|-----------------*|





 Fill 1              Fill 3       Rhy Fill 1
                                   Am       G5  Am
                                Gtr I
                                    Q   Q   Q   Q
                                    |   |   |   |
                                    /   x   /   /
  Gtr II                        Gtr III
  H.      +E  +E       W            Q   E E E E Q
|------------------||-----------||------0-------0--|
|-6-------(6)-(6)-||-----------||------1-1-0-0-1--|
|-5-------(5)-(5)-||-----------||-(2)--2---0-0-2--|
|------------------||-----------||-(2)------0-0-2--|
|------------------||-----------||-(0)-------------|
|------------------||-1--------||-----------------|
	

            
            
Suggest correction
Creating personal tab
Creating personal tab
You can edit any tab online and save it as your Personal.

You can edit, replace or remove any tab part or add personal notes – all changes will be seen only by you.

Personal tabs can be accessed anytime from any device, even offline.
Learn more »
comments
print report bad tab
1 comment total.
+1 reply
derekrodrigues 17 Nov 18, 2016 06:50 PM

actually this 4 star version is much closer to the original recording than the 5 star version ....

guest
You may want to rate the tab now too:
select rating
Wanna post a correction for this tab? Suggest correction