Oops, an error
Loading. Please wait.
We have Chord Pro version of Tuesdays Gone.
It's the closest thing you can get to the original song and it has interactive parts. Check out the tab »
×
22,365 views 12 this week
no commentswrite comment
1 2 3 4 5
x 3
add to favorites
×
Save as Personal and add changes to this tab that will be seen only by you. Learn more ›
×
You can save this tab as Personal to edit and correct it or add notes. All changes will be seen only by you. Learn more »
launch autoscroll
font size
0
reset
how to read this tab
guitar tuner
backing track
0:00
0:00
edit
Autoscroll
slow
fast
+/-
esc
set tempo
stop
Author
                                                                  Lynyrd Skynyrd
Guitar Lead



     ^  ^  ^  ^  ^  ^  ^  ^  ^  ^  ^  ^   
     E  E  E  E  E  E  E  E  E  E  E  E   
E||--0--0--0--0--0--0--0--0--0--0--0--0--|
B||--2--2--2--2--2--2--0--0--0--0--0--0--|
G||--2--2--2--2--2--2--1--1--1--1--1--1--|
D||--2--2--2--2--2--2--2--2--2--2--2--2--|
A||--0--0--0--0--0--0--2--2--2--2--2--2--|
E||--------------------0--0--0--0--0--0--|


  ^  ^  ^  ^  ^  ^  ^  ^  ^  ^  ^  ^     ^  ^  ^  ^  ^  ^  ^  ^  ^  ^  ^  ^   
  E  E  E  E  E  E  E  E  E  E  E  E     E  E  E  E  E  E  E  E  E  E  E  E   
--2--2--2--2--2--2--2--2--2--2--2--2--|--0--0--0--0--0--0--0--0--0--0--0--0--|
--2--2--2--2--2--2--3--3--3--3--3--3--|--2--2--2--2--2--2--0--0--0--0--0--0--|
--2--2--2--2--2--2--2--2--2--2--2--2--|--2--2--2--2--2--2--1--1--1--1--1--1--|
--4--4--4--4--4--4--0--0--0--0--0--0--|--2--2--2--2--2--2--2--2--2--2--2--2--|
--4--4--4--4--4--4--0--0--0--0--0--0--|--0--0--0--0--0--0--2--2--2--2--2--2--|
--2--2--2--2--2--2--------------------|--------------------0--0--0--0--0--0--|


  W                E  Q.           Q.     Q.        Q.     Q.         
--------------------------------|------------------------------------|
--------------------------------|------------------------------------|
--------------------------------|------------------------------------|
----------------------9brb------|--7------9brb-------------9brb------|
--------------------------------|-------------------7----------------|
--------------------------------|------------------------------------|


  H        E  S S S  S  Q    S S S S S S  
-----------------------------------------|
-----------------------------------------|
-----------------------------------------|
--------------7------------------------7-|
--9--------L------5p-4h-5--------5-7-9---|
-----------------------------5-7---------|


   Q.       Q      S S Q.      E      S  S  S  S  
-------------------------------------------------|
-------------------------------------------------|
--(9)------(9)----------------(9)S--(11)---(9)---|
---9b-------9br----7----------(7)S---11-----9----|
-----------------------7-------------------------|
-------------------------------------------------|


  H.           H        S S S S    E  E  E  E  E  E  E  E  E  E  E  E   
--------------------------------|--------------------------------------|
--------------------------------|-----------2--------------------------|
------------------------6-7-9-6-|--------2-----2--------------1--------|
--7-----------------------------|-----2-----------2--------2-----2-----|
--------------------------------|--0--------------------2-----------2--|
--------------------------------|--------------------0-----------------|


                             |--3--|        
  E  E  E  E  E  E  E  E  E  S  S  S E  E   
-----------------------------2h-3p-2-------|
--------------------------3----------3-----|
-----------2-----------2----------------2--|
--------4-----4-----0----------------------|
-----4-----------4-------------------------|
--2----------------------------------------|


  E  E  E  E  E  E  E  E  E  E  E  E     E  E  E  E  E  E  E  E  E  E  E  E   
--------------------------------------|-----0--------0--------0--------0-----|
-----------2--------------------------|--------3--------3--------3--------3--|
--------2-----2--------------1--------|--------------------------------------|
-----2-----------2--------2-----2-----|--0--------0--------0--------0--------|
--0--------------------2-----------2--|--------------------------------------|
--------------------0-----------------|--------------------------------------|


  E  E  E  E  E  E  E  E  E  E  E  E   
--------------------------------------|
-----------2--------------------------|
--------2-----2--------------1--------|
-----2-----------2--------2-----2-----|
--0--------------------2-----------2--|
--------------------0-----------------|


           |--3--| |--3--|                         
  E  E  E  S  S  S S  S  S E  E  E  E  S S S S E   
---------------------------------------3-2-3-2----|
------------------------------------3----------3--|
-----------2h-4p-2---------------2----------------|
--------4----------2h-4p-2----0-------------------|
-----4---------------------4----------------------|
--2-----------------------------------------------|


  E  E  E  E  E  E  E  E  E  E  E  E     E  E  E  E  E  E  E  E  E  E  E  E   
--------------------------------0-----|-----0--------2--------3--------5-----|
-----------2-----------------------0--|--------3--------3--------3--------3--|
--------2-----2--------------1--------|--------------------------------------|
-----2-----------2--------2-----------|--0--------0--------0--------0--------|
--0--------------------2--------------|--------------------------------------|
--------------------0-----------------|--------------------------------------|


  ^          ^          ^          ^           
  E  S S S S E  S S S S E  S S S S E  S S S S  
--0----2-----0----2-----3----------3----------|
--2----2-----2----2-----0----0-----0----0-----|
--2--2-2-----2--2-2-----0----0-----0----0-----|
--2--2-2-2---2--2-2-2---0--0-0-----0--0-0-----|
--0--0-0-0-0-0--0-0-0-0-2--2-2-2---2--2-2-2---|
------------------------3--3-3-3-3-3--3-3-3-3-|


  ^          ^          ^          ^           
  E  S S S S E  S S S S E  S S S S E  S S S S  
--2----2-----2----2-----2----2-----2----2-----|
--3--3-3-----3--3-3-----3--3-3-----3--3-3-----|
--2--2-2-2---2--2-2-2---2--2-2-2---2--2-2-2---|
--0--0-0-0-0-0--0-0-0-0-0--0-0-0-0-0--0-0-0-0-|
----------------------------------------------|
----------------------------------------------|


  ^          ^          ^          ^           
  E  S S S S E  S S S S E  S S S S E  S S S S  
--0----2-----0----2-----0----------0----------|
--2----2-----2----2-----0----0-----0----0-----|
--2--2-2-----2--2-2-----1----1-----1----1-----|
--2--2-2-2---2--2-2-2---2--2-2-----2--2-2-----|
--0--0-0-0-0-0--0-0-0-0-2--2-2-2---2--2-2-2---|
------------------------0--0-0-0-0-0--0-0-0-0-|


  E  E  E  E  E  E  E  E  E  E  E  E   
-----0--------2--------3--------5-----|
--------3--------3--------3--------3--|
--------------------------------------|
--0--------0--------0--------0--------|
--------------------------------------|
--------------------------------------|


  Q.     E    S. T  S S S Q    E.  Q        
-------------------------------------------|
-------------------------------------------|
-------------------------------------------|
--7------9br--L--7-11---9----------9brb----|
--------------------------7----------------|
-------------------------------------------|


  Q.     Q    E  S  S  S  S  S  S S S S S S S  
----------------------------------------------|
----------------------------------------------|
----------------------------------------------|
--------------7-----------------------------7-|
--9------L-------5s-4s-5S-4s-5s-4-----5-7-9---|
----------------------------------5-7---------|


  Q.      Q      S S Q.      E      S  S  S  S  
-----------------------------------------------|
-----------------------------------------------|
----------------------------(9)S--(11)---(9)---|
--9b------9br----7----------(7)S---11-----9----|
---------------------7-------------------------|
-----------------------------------------------|


  H.           H        S S S S    E  E  E  E  E  E  E  E  E  E  E  E   
--------------------------------|--------------------------------------|
--------------------------------|-----------2--------------------------|
------------------------6-7-9-6-|--------2-----2--------------1--------|
--------------------------------|-----2-----------2--------2-----2-----|
--5-----------------------------|--0--------------------2-----------2--|
--------------------------------|--------------------0-----------------|


                             |--3--|        
  E  E  E  E  E  E  E  E  E  S  S  S E  E   
-----------------------------2h-3p-2-------|
--------------------------3----------3-----|
-----------2-----------2----------------2--|
--------4-----4-----0----------------------|
-----4-----------4-------------------------|
--2----------------------------------------|


  E  E  E  E  E  E  E  E  E  E  E  E     E  E  E  E  E  E  E  E  E  E  E  E   
--------------------------------------|-----0--------0--------0--------0-----|
-----------2--------------------------|--------3--------3--------3--------3--|
--------2-----2--------------1--------|--------------------------------------|
-----2-----------2--------2-----2-----|--0--------0--------0--------0--------|
--0--------------------2-----------2--|--------------------------------------|
--------------------0-----------------|--------------------------------------|


  E  E  E  E  E  E  E  E  E  E  E  E   
--------------------------------------|
-----------2--------------------------|
--------2-----2--------------1--------|
-----2-----------2--------2-----2-----|
--0--------------------2-----------2--|
--------------------0-----------------|


           |--3--| |--3--|                         
  E  E  E  S  S  S S  S  S E  E  E  E  S S S S E   
---------------------------------------3-2-3-2----|
------------------------------------3----------3--|
-----------2h-4p-2---------------2----------------|
--------4----------2h-4p-2----0-------------------|
-----4---------------------4----------------------|
--2-----------------------------------------------|


  E  E  E  E  E  E  E  E  E  E  E  E     E  E  E  E  E  E  E  E  E  E  E  E   
--------------------------------------|-----0--------2--------3--------5-----|
-----------2--------------------------|--------3--------3--------3--------3--|
--------2-----2--------------1--------|--------------------------------------|
-----2-----------2--------2-----2-----|--0--------0--------0--------0--------|
--0--------------------2-----------2--|--------------------------------------|
--------------------0-----------------|--------------------------------------|


  ^          ^          ^          ^           
  E  S S S S E  S S S S E  S S S S E  S S S S  
--0----2-----0----2-----3----------3----------|
--2----2-----2----2-----0----0-----0----0-----|
--2--2-2-----2--2-2-----0----0-----0----0-----|
--2--2-2-2---2--2-2-2---0--0-0-----0--0-0-----|
--0--0-0-0-0-0--0-0-0-0-2--2-2-2---2--2-2-2---|
------------------------3--3-3-3-3-3--3-3-3-3-|


  ^          ^          ^          ^           
  E  S S S S E  S S S S E  S S S S E  S S S S  
--2----2-----2----2-----2----2-----2----2-----|
--3--3-3-----3--3-3-----3--3-3-----3--3-3-----|
--2--2-2-2---2--2-2-2---2--2-2-2---2--2-2-2---|
--0--0-0-0-0-0--0-0-0-0-0--0-0-0-0-0--0-0-0-0-|
----------------------------------------------|
----------------------------------------------|


  ^          ^          ^          ^           
  E  S S S S E  S S S S E  S S S S E  S S S S  
--0----2-----0----2-----3----------3----------|
--2----2-----2----2-----0----0-----0----0-----|
--2--2-2-----2--2-2-----0----0-----0----0-----|
--2--2-2-2---2--2-2-2---0--0-0-----0--0-0-----|
--0--0-0-0-0-0--0-0-0-0-2--2-2-2---2--2-2-2---|
------------------------3--3-3-3-3-3--3-3-3-3-|


  ^          ^          ^          ^           
  E  S S S S E  S S S S E  S S S S E  S S S S  
--2----2-----2----2-----2----2-----2----2-----|
--3--3-3-----3--3-3-----3--3-3-----3--3-3-----|
--2--2-2-2---2--2-2-2---2--2-2-2---2--2-2-2---|
--0--0-0-0-0-0--0-0-0-0-0--0-0-0-0-0--0-0-0-0-|
----------------------------------------------|
----------------------------------------------|


  ^          ^          ^          ^           
  E  S S S S E  S S S S E  S S S S E  S S S S  
--0----2-----0----2-----3----------3----------|
--2----2-----2----2-----0----0-----0----0-----|
--2--2-2-----2--2-2-----0----0-----0----0-----|
--2--2-2-2---2--2-2-2---0--0-0-----0--0-0-----|
--0--0-0-0-0-0--0-0-0-0-2--2-2-2---2--2-2-2---|
------------------------3--3-3-3-3-3--3-3-3-3-|


  ^          ^          ^          ^           
  E  S S S S E  S S S S E  S S S S E  S S S S  
--2----2-----2----2-----2----2-----2----2-----|
--3--3-3-----3--3-3-----3--3-3-----3--3-3-----|
--2--2-2-2---2--2-2-2---2--2-2-2---2--2-2-2---|
--0--0-0-0-0-0--0-0-0-0-0--0-0-0-0-0--0-0-0-0-|
----------------------------------------------|
----------------------------------------------|


  ^          ^          ^          ^           
  E  S S S S E  S S S S E  S S S S E  S S S S  
--0----2-----0----2-----0----------0----------|
--2----2-----2----2-----0----0-----0----0-----|
--2--2-2-----2--2-2-----1----1-----1----1-----|
--2--2-2-2---2--2-2-2---2--2-2-----2--2-2-----|
--0--0-0-0-0-0--0-0-0-0-2--2-2-2---2--2-2-2---|
------------------------0--0-0-0-0-0--0-0-0-0-|


                                         ^        ^        ^        ^         
  E  E  E  E  E  E  E  E  E  E  E  E     Q    S S Q    S S Q    S S Q    S S  
-----0--------2--------3--------5-----|--0----L-0-0----L-0-0----L-0-0----L-0-|
--------3--------3--------3--------3--|--2----L-2-2----L-2-0----L-0-0----L-0-|
--------------------------------------|--2----L-2-2----L-2-1----L-1-1----L-1-|
--0--------0--------0--------0--------|--2----L-2-2----L-2-2----L-2-2----L-2-|
--------------------------------------|--0----L-0-0----L-0-2----L-2-2----L-2-|
--------------------------------------|--------------------0----L-0-0----L-0-|


  ^        ^        ^        ^           ^        ^        ^        ^         
  Q    S S Q    S S Q    S S Q    S S    Q    S S Q    S S Q    S S Q    S S  
--2----L-2-2----L-2-2----L-2-2----L-2-|--0----L-0-0----L-0-0----L-0-0----L-0-|
--2----L-2-2----L-2-3----L-3-3----L-3-|--2----L-2-2----L-2-0----L-0-0----L-0-|
--2----L-2-2----L-2-2----L-2-2----L-2-|--2----L-2-2----L-2-1----L-1-1----L-1-|
--4----L-4-4----L-4-0----L-0-0----L-0-|--2----L-2-2----L-2-2----L-2-2----L-2-|
--4----L-4-4----L-4-0----L-0-0----L-0-|--0----L-0-0----L-0-2----L-2-2----L-2-|
--2----L-2-2----L-2-------------------|--------------------0----L-0-0----L-0-|


  ^        ^                                 
  Q    S S Q    S S S S S S S S S S S S S S  
--2----L-2-2----L-2-3-3-3-3-3-3-3-3-3-3-3-3-|
--2----L-2-2----L-2-0-0-0-0-0-0-0-0-0-0-0-0-|
--2----L-2-2----L-2-0-0-0-0-0-0-0-0-0-0-0-0-|
--4----L-4-4----L-4-0-0-0-0-0-0-0-0-0-0-0-0-|
--4----L-4-4----L-4-2-2-2-2-2-2-2-2-2-2-2-2-|
--2----L-2-2----L-2-3-3-3-3-3-3-3-3-3-3-3-3-|


  ^          ^          ^          ^           
  E  S S S S E  S S S S E  S S S S E  S S S S  
--0----2-----0----2-----0----------0----------|
--2----2-----2----2-----0----0-----0----0-----|
--2--2-2-----2--2-2-----1----1-----1----1-----|
--2--2-2-2---2--2-2-2---2--2-2-----2--2-2-----|
--0--0-0-0-0-0--0-0-0-0-2--2-2-2---2--2-2-2---|
------------------------0--0-0-0-0-0--0-0-0-0-|


  ^          ^          ^          ^           
  E  S S S S E  S S S S E  S S S S E  S S S S  
--2----2-----2----2-----2----2-----2----2-----|
--2----2-----2----2-----3--3-3-----3--3-3-----|
--2--2-2-----2--2-2-----2--2-2-2---2--2-2-2---|
--4--4-4-4---4--4-4-4---0--0-0-0-0-0--0-0-0-0-|
--4--4-4-4-4-4--4-4-4-4-----------------------|
--2--2-2-2-2-2--2-2-2-2-----------------------|


  ^          ^          ^          ^           
  E  S S S S E  S S S S E  S S S S E  S S S S  
--0----2-----0----2-----0----------0----------|
--2----2-----2----2-----0----0-----0----0-----|
--2--2-2-----2--2-2-----1----1-----1----1-----|
--2--2-2-2---2--2-2-2---2--2-2-----2--2-2-----|
--0--0-0-0-0-0--0-0-0-0-2--2-2-2---2--2-2-2---|
------------------------0--0-0-0-0-0--0-0-0-0-|


  ^                                              
  E  S S S S E  S S S S S S S S S S S S S S S S  
--2----------2----------3-3-3-3-3-3-3-3-3-3-3-3-|
--2----2-----2----2-----0-0-0-0-0-0-0-0-0-0-0-0-|
--2----2-----2----2-----0-0-0-0-0-0-0-0-0-0-0-0-|
--4--4-4-----4--4-4-----0-0-0-0-0-0-0-0-0-0-0-0-|
--4--4-4-4---4--4-4-4---2-2-2-2-2-2-2-2-2-2-2-2-|
--2--2-2-2-2-2--2-2-2-2-3-3-3-3-3-3-3-3-3-3-3-3-|


  ^          ^          ^          ^           
  E  S S S S E  S S S S E  S S S S E  S S S S  
--0----2-----0----2-----3----------3----------|
--2----2-----2----2-----0----0-----0----0-----|
--2--2-2-----2--2-2-----0----0-----0----0-----|
--2--2-2-2---2--2-2-2---0--0-0-----0--0-0-----|
--0--0-0-0-0-0--0-0-0-0-2--2-2-2---2--2-2-2---|
------------------------3--3-3-3-3-3--3-3-3-3-|


  ^          ^          ^          ^           
  E  S S S S E  S S S S E  S S S S E  S S S S  
--2----2-----2----2-----2----2-----2----2-----|
--3--3-3-----3--3-3-----3--3-3-----3--3-3-----|
--2--2-2-2---2--2-2-2---2--2-2-2---2--2-2-2---|
--0--0-0-0-0-0--0-0-0-0-0--0-0-0-0-0--0-0-0-0-|
----------------------------------------------|
----------------------------------------------|


  ^          ^          ^          ^           
  E  S S S S E  S S S S E  S S S S E  S S S S  
--0----0-----0----0-----3----------3----------|
--2----2-----2----2-----0----0-----0----0-----|
--2--2-2-----2--2-2-----0----0-----0----0-----|
--2--2-2-2---2--2-2-2---0--0-0-----0--0-0-----|
--0--0-0-0-0-0--0-0-0-0-2--2-2-2---2--2-2-2---|
------------------------3--3-3-3-3-3--3-3-3-3-|


  ^          ^          ^          ^           
  E  S S S S E  S S S S E  S S S S E  S S S S  
--2----2-----2----2-----2----2-----2----2-----|
--3--3-3-----3--3-3-----3--3-3-----3--3-3-----|
--2--2-2-2---2--2-2-2---2--2-2-2---2--2-2-2---|
--0--0-0-0-0-0--0-0-0-0-0--0-0-0-0-0--0-0-0-0-|
----------------------------------------------|
----------------------------------------------|


  ^          ^          ^          ^           
  E  S S S S E  S S S S E  S S S S E  S S S S  
--0----0-----0----0-----3----------3----------|
--2----2-----2----2-----0----0-----0----0-----|
--2--2-2-----2--2-2-----0----0-----0----0-----|
--2--2-2-2---2--2-2-2---0--0-0-----0--0-0-----|
--0--0-0-0-0-0--0-0-0-0-2--2-2-2---2--2-2-2---|
------------------------3--3-3-3-3-3--3-3-3-3-|


  ^          ^          ^          ^           
  E  S S S S E  S S S S E  S S S S E  S S S S  
--2----2-----2----2-----2----2-----2----2-----|
--3--3-3-----3--3-3-----3--3-3-----3--3-3-----|
--2--2-2-2---2--2-2-2---2--2-2-2---2--2-2-2---|
--0--0-0-0-0-0--0-0-0-0-0--0-0-0-0-0--0-0-0-0-|
----------------------------------------------|
----------------------------------------------|


  ^          ^          ^          ^           
  E  S S S S E  S S S S E  S S S S E  S S S S  
--0----2-----0----2-----0----------0----------|
--2----2-----2----2-----0----0-----0----0-----|
--2--2-2-----2--2-2-----1----1-----1----1-----|
--2--2-2-2---2--2-2-2---2--2-2-----2--2-2-----|
--0--0-0-0-0-0--0-0-0-0-2--2-2-2---2--2-2-2---|
------------------------0--0-0-0-0-0--0-0-0-0-|


  W                E  Q       E     Q.     Q.        Q.     T  T T T Q        
---------------------------------|-------------------------------------------|
---------------------------------|-------------------------------------------|
---------------------------------|-------------------------------------------|
----------------------9brb-------|--7------9brb-------------9b---9---9brb----|
---------------------------------|-------------------7-----------------------|
---------------------------------|-------------------------------------------|


  Q.     Q    S S Q.     S S S S S  S  
--------------------------------------|
--------------------------------------|
--------------------------------------|
---------7-----------------------9b-9-|
--9-----------9-7-5--------5-9-7------|
-------------------------7------------|


  Q    S S E   S. T  S S Q.     E    S S  S S  
----------------------------------------------|
----------------------------------------------|
----------------------------------------------|
--7----9---9b--9--7-11---9------9S--16---14---|
----------------------------------------------|
----------------------------------------------|


   Q.      H.             Q.        E  E  E  E  E  E  E  E  E  E  E  E   
---------------------------------|--------------------------------------|
----------17br------------L------|-----------2--------------------------|
--14-----------------------------|--------2-----2--------------1--------|
---------------------------------|-----2-----------2--------2-----2-----|
---------------------------------|--0--------------------2-----------2--|
---------------------------------|--------------------0-----------------|


                             |--3--|        
  E  E  E  E  E  E  E  E  E  S  S  S E  E   
-----------------------------2h-3p-2-------|
--------------------------3----------3-----|
-----------2-----------2----------------2--|
--------4-----4-----0----------------------|
-----4-----------4-------------------------|
--2----------------------------------------|


  E  E  E  E  E  E  E  E  E  E  E  E     E  E  E  E  E  E  E  E  E  E  E  E   
--------------------------------------|-----0--------0--------0--------0-----|
-----------2--------------------------|--------3--------3--------3--------3--|
--------2-----2--------------1--------|--------------------------------------|
-----2-----------2--------2-----2-----|--0--------0--------0--------0--------|
--0--------------------2-----------2--|--------------------------------------|
--------------------0-----------------|--------------------------------------|


  E  E  E  E  E  E  E  E  E  E  E  E   
--------------------------------------|
-----------2--------------------------|
--------2-----2--------------1--------|
-----2-----------2--------2-----2-----|
--0--------------------2-----------2--|
--------------------0-----------------|


           |--3--| |--3--|                           
  E  E  E  S  S  S S  S  S E  E  E  E  S  S S  S E   
---------------------------------------3p-2-3p-2----|
------------------------------------3------------3--|
-----------2h-4p-2---------------2------------------|
--------4----------2h-4p-2----0---------------------|
-----4---------------------4------------------------|
--2-------------------------------------------------|


  E  E  E  E  E  E  E  E  E  E  E  E     E  E  E  E  E  E  E  E  E  E  E  E   
--------------------------------------|-----0--------2--------3--------5-----|
-----------2--------------------------|--------3--------3--------3--------3--|
--------2-----2--------------1--------|--------------------------------------|
-----2-----------2--------2-----2-----|--0--------0--------0--------0--------|
--0--------------------2-----------2--|--------------------------------------|
--------------------0-----------------|--------------------------------------|


  ^          ^          ^          ^           
  E  S S S S E  S S S S E  S S S S E  S S S S  
--0----2-----0----2-----3----------3----------|
--2----2-----2----2-----0----0-----0----0-----|
--2--2-2-----2--2-2-----0----0-----0----0-----|
--2--2-2-2---2--2-2-2---0--0-0-----0--0-0-----|
--0--0-0-0-0-0--0-0-0-0-2--2-2-2---2--2-2-2---|
------------------------3--3-3-3-3-3--3-3-3-3-|


  ^          ^          ^          ^           
  E  S S S S E  S S S S E  S S S S E  S S S S  
--2----2-----2----2-----2----2-----2----2-----|
--3--3-3-----3--3-3-----3--3-3-----3--3-3-----|
--2--2-2-2---2--2-2-2---2--2-2-2---2--2-2-2---|
--0--0-0-0-0-0--0-0-0-0-0--0-0-0-0-0--0-0-0-0-|
----------------------------------------------|
----------------------------------------------|


  ^          ^          ^          ^           
  E  S S S S E  S S S S E  S S S S E  S S S S  
--0----2-----0----2-----3----------3----------|
--2----2-----2----2-----0----0-----0----0-----|
--2--2-2-----2--2-2-----0----0-----0----0-----|
--2--2-2-2---2--2-2-2---0--0-0-----0--0-0-----|
--0--0-0-0-0-0--0-0-0-0-2--2-2-2---2--2-2-2---|
------------------------3--3-3-3-3-3--3-3-3-3-|


  ^          ^          ^          ^           
  E  S S S S E  S S S S E  S S S S E  S S S S  
--2----2-----2----2-----2----2-----2----2-----|
--3--3-3-----3--3-3-----3--3-3-----3--3-3-----|
--2--2-2-2---2--2-2-2---2--2-2-2---2--2-2-2---|
--0--0-0-0-0-0--0-0-0-0-0--0-0-0-0-0--0-0-0-0-|
----------------------------------------------|
----------------------------------------------|


  ^          ^          ^          ^           
  E  S S S S E  S S S S E  S S S S E  S S S S  
--0----2-----0----2-----3----------3----------|
--2----2-----2----2-----0----0-----0----0-----|
--2--2-2-----2--2-2-----0----0-----0----0-----|
--2--2-2-2---2--2-2-2---0--0-0-----0--0-0-----|
--0--0-0-0-0-0--0-0-0-0-2--2-2-2---2--2-2-2---|
------------------------3--3-3-3-3-3--3-3-3-3-|


  ^          ^          ^          ^           
  E  S S S S E  S S S S E  S S S S E  S S S S  
--2----2-----2----2-----2----2-----2----2-----|
--3--3-3-----3--3-3-----3--3-3-----3--3-3-----|
--2--2-2-2---2--2-2-2---2--2-2-2---2--2-2-2---|
--0--0-0-0-0-0--0-0-0-0-0--0-0-0-0-0--0-0-0-0-|
----------------------------------------------|
----------------------------------------------|


  ^          ^          ^          ^           
  E  S S S S E  S S S S E  S S S S E  S S S S  
--0----2-----0----2-----0----------0----------|
--2----2-----2----2-----0----0-----0----0-----|
--2--2-2-----2--2-2-----1----1-----1----1-----|
--2--2-2-2---2--2-2-2---2--2-2-----2--2-2-----|
--0--0-0-0-0-0--0-0-0-0-2--2-2-2---2--2-2-2---|
------------------------0--0-0-0-0-0--0-0-0-0-|


  E  E  E  E  E  E  E  E  E  E  E  E   
-----0--------2--------3--------5-----|
--------3--------3--------3--------3--|
--------------------------------------|
--0--------0--------0--------0--------|
--------------------------------------|
--------------------------------------|


  ^          ^          ^          ^           
  E  S S S S E  S S S S E  S S S S E  S S S S  
--0----2-----0----2-----0----------0----------|
--2----2-----2----2-----0----0-----0----0-----|
--2--2-2-----2--2-2-----1----1-----1----1-----|
--2--2-2-2---2--2-2-2---2--2-2-----2--2-2-----|
--0--0-0-0-0-0--0-0-0-0-2--2-2-2---2--2-2-2---|
------------------------0--0-0-0-0-0--0-0-0-0-|


  ^          ^          ^          ^           
  E  S S S S E  S S S S E  S S S S E  S S S S  
--2----2-----2----2-----2----2-----2----2-----|
--3--3-3-----3--3-3-----3--3-3-----3--3-3-----|
--2--2-2-2---2--2-2-2---2--2-2-2---2--2-2-2---|
--0--0-0-0-0-0--0-0-0-0-0--0-0-0-0-0--0-0-0-0-|
----------------------------------------------|
----------------------------------------------|


  ^          ^          ^          ^           
  E  S S S S E  S S S S E  S S S S E  S S S S  
--0----2-----0----2-----0----------0----------|
--2----2-----2----2-----0----0-----0----0-----|
--2--2-2-----2--2-2-----1----1-----1----1-----|
--2--2-2-2---2--2-2-2---2--2-2-----2--2-2-----|
--0--0-0-0-0-0--0-0-0-0-2--2-2-2---2--2-2-2---|
------------------------0--0-0-0-0-0--0-0-0-0-|


  ^          ^          ^          ^           
  E  S S S S E  S S S S E  S S S S E  S S S S  
--2----2-----2----2-----2----2-----2----2-----|
--3--3-3-----3--3-3-----3--3-3-----3--3-3-----|
--2--2-2-2---2--2-2-2---2--2-2-2---2--2-2-2---|
--0--0-0-0-0-0--0-0-0-0-0--0-0-0-0-0--0-0-0-0-|
----------------------------------------------|
----------------------------------------------|


  ^          ^          ^          ^           
  E  S S S S E  S S S S E  S S S S E  S S S S  
--0----2-----0----2-----0----------0----------|
--2----2-----2----2-----0----0-----0----0-----|
--2--2-2-----2--2-2-----1----1-----1----1-----|
--2--2-2-2---2--2-2-2---2--2-2-----2--2-2-----|
--0--0-0-0-0-0--0-0-0-0-2--2-2-2---2--2-2-2---|
------------------------0--0-0-0-0-0--0-0-0-0-|


  ^          ^          ^          ^           
  E  S S S S E  S S S S E  S S S S E  S S S S  
--2----2-----2----2-----2----2-----2----2-----|
--3--3-3-----3--3-3-----3--3-3-----3--3-3-----|
--2--2-2-2---2--2-2-2---2--2-2-2---2--2-2-2---|
--0--0-0-0-0-0--0-0-0-0-0--0-0-0-0-0--0-0-0-0-|
----------------------------------------------|
----------------------------------------------|


   Q.      E.     S  E    S S Q    S  S  S  S  S  S  
----------------------------------------------------|
--10------12br---10-12b--10-------------10----10----|
----------------------------9-L----9-11----11----11-|
----------------------------------------------------|
----------------------------------------------------|
----------------------------------------------------|


   Q    E  Q    E   S   S  S   S  S   S  S   S  S S S S  
--------------------------------------------------------|
--10----9--7-------10s-(9)-9s-(7)-7s-(5)-5s-(3)-2-3-2-0-|
----------------9---------------------------------------|
--------------------------------------------------------|
--------------------------------------------------------|
--------------------------------------------------------|


  Q.      S S S S  S   S Q.     S S S S S S  
--------------------------------------------|
--------------------------------------------|
--2---------2-4-4b-4pb-4------------2-4-2---|
---------/4--------------2------2-4-------4-|
--------------------------------------------|
--------------------------------------------|


  E  E  E  E  E  E   S S S S S S   S S  S  S  E    
--------------------------------------------------|
------------------------------------------10-10b--|
--2--2-----2--2----------------------9-11---------|
--------4--------4S----------7-9s-11--------------|
-------------------------7-9----------------------|
---------------------7-9--------------------------|


   Q     E    E.     S   E     Q     S   E    S  S  S  S  S   
------------(12)---(12)------(12)------(12)------------------|
--10----12---12b----10--12b---12-----L--12b--12-10----10-17S-|
---------------------------------------------------11--------|
-------------------------------------------------------------|
-------------------------------------------------------------|
-------------------------------------------------------------|


   E   E   E   S   S  E   E   S   S  E   S  S  S  S  X   T. S  S  S  
------------------------------------17------------------------------|
--19--19--19--17s-19-19--19--19p-17-----19-17----17-----------------|
----------------------------------------------18----18s-16-14-------|
--------------------------------------------------------------14-16-|
--------------------------------------------------------------------|
--------------------------------------------------------------------|


   Q     E    E.     S   E     Q     S   E    S  S  S  S  S   
-------------------------------------------------------------|
------------(17)---(17)------(17)----L-(17)--------------17b-|
--14----16---16b----14--16b---16--------16b--16-14----14-----|
---------------------------------------------------16--------|
-------------------------------------------------------------|
-------------------------------------------------------------|


  E   E     E     E    E     E     E    E   E   E      E   E   
-----17----17---------17----17---------17--17-----------------|
--L--17pb--17pb--17b--17pb--17pb--17b----------17pbr------17--|
------------------------------------------------------18------|
--------------------------------------------------------------|
--------------------------------------------------------------|
--------------------------------------------------------------|


   Q     E    E.     S   E     Q     S   E    S  S  S  E   
----------------------------------------------------------|
------------(17)---(17)------(17)----L-(17)---------------|
--14----16---16b----14--16b---16--------16b--16-14----14--|
---------------------------------------------------16-----|
----------------------------------------------------------|
----------------------------------------------------------|


   S   S  S  S  S  S  S   S  S  S  S  S  S  S  E   S  S  E   S  S  E   
----------------------------------------------17--------17--------17--|
--17s-19-19-19-19-19-17s-19-19-19-19-19-19-17-----19-17-----19-17-----|
----------------------------------------------------------------------|
----------------------------------------------------------------------|
----------------------------------------------------------------------|
----------------------------------------------------------------------|


   E    Q      E      S  S  S  S  Q.      S  S  S  S  S  S  
--19b--19b----19pbr--17----17-19-19------------17-19-19b---|
------------------------19---------------17-19-------------|
-----------------------------------------------------------|
-----------------------------------------------------------|
-----------------------------------------------------------|
-----------------------------------------------------------|


       |-3-|  3   3  |--|   3        |-3-|                                  
   E   E   S  T   S. S  E   S  Q     E   S  E      S  S  S  S  S  S  S  S   
--17----------------------------------------------------------------------||
------19--17----------------------------17--------------------------------||
-------------18s-16-14-14--16-16b----L-----16pbr--14-16-14----14-16-14----||
-----------------------------------------------------------16----------16-||
--------------------------------------------------------------------------||
--------------------------------------------------------------------------||




Duration Legend
---------------
W - whole
H - half
Q - quarter
E - 8th
S - 16th
T - 32nd
X - 64th
. - note dotted
|-n-|  - n-tuplets


Tablature Legend
----------------
L - tied note
x - dead note
g - grace note
(n) - ghost note
> - accentuded note
NH - natural harmonic
AH - artificial harmonic
TH - tapped harmonic
SH - semi harmonic
PH - pitch harmonic
h - hammer on
p - pull off
b - bend
br - bendRelease
pb - preBend
pbr - preBendRelease
brb - bendReleaseBend
\n/ - tremolo bar dip
\n - tremolo bar dive
-/n - tremolo bar Release up
/n\ - tremolo bar inverted dip
/n - tremolo bar return
-\n - tremolo bar Release down
S - shift slide
s - legato slide
/ -  slide into from below or out of upwards
\ -  slide into from above or out of downwards
~ - vibrato
W - wide vibrato
tr - trill
TP - tremolo picking
T - tapping
S - slap
P - pop
< - fade in
^ - brush up
v - brush down

            
            
Suggest correction
Creating personal tab
Creating personal tab
You can edit any tab online and save it as your Personal.

You can edit, replace or remove any tab part or add personal notes – all changes will be seen only by you.

Personal tabs can be accessed anytime from any device, even offline.
Learn more »
Give kudos to tab author, rate the tab!
1 2 3 4 5
comments
print report bad tab
guest
You may want to rate the tab now too:
select rating
Wanna post a correction for this tab? Suggest correction