Oops, an error
Loading. Please wait.

Whats Your Name bass

version 2
version 2

Whole song

Interactive

2,999 views 3 this week
no commentswrite comment
1 2 3 4 5
3 more votes to show rating
add to favorites
×
Save as Personal and add changes to this tab that will be seen only by you. Learn more ›
×
You can save this tab as Personal to edit and correct it or add notes. All changes will be seen only by you. Learn more »
launch autoscroll
font size
0
reset
guitar tuner
backing track
0:00
0:00
edit
Autoscroll
slow
fast
+/-
esc
set tempo
stop
     W                   W                   W                 
G||-------------------|-------------------|-------------------|
D||-------------------|-------------------|-------------------|
A||-------------------|-------------------|-------------------|
E||-------------------|-------------------|-------------------|


  W                   E  E  E  E  E  E  E  E     E  E  E  E  E  E  E  E   
-------------------|--------5--4--------------|--------------------------|
-------------------|-----7--------7-----------|--------------------------|
-------------------|-----------------3--4-----|-----7--9--0--7--9--------|
-------------------|-----------------------5--|--L--------------------5--|


  E  E  E  E  E  E  E  E     E  E  E  E  E  E  E  E   
--------------------------|--------------------------|
--------------------------|--------------------------|
-----7--9--0--7-----------|-----5--7-----5--7--------|
--L--------------0--2--5--|--L--------3-----------5--|


  fill 3 3rd time                                                  
  E               E  E  E  E  E  E  E     E  E  E  E  E  E  E  E   
---------------------------------------|--------------------------|
------------------7-----------------7--|--L-----------------------|
---------------------9--7-----3--4-----|-----7--9--0--7--9--------|
--L------------------------------------|-----------------------5--|


  E  E  E  E  E  E  E  E     E  E  E  E  E  E  E  E   
--------------------------|--------------------------|
--------------------------|--------------------------|
-----7--9--0--7-----------|--------4-----2--4--------|
--L--------------7--9--0--|--L--0-----0-----------0--|


  E  E  E  E  E  E  E  E     E  E  E  E  E  E  E  E   
--------------------------|--------------------------|
--------------------------|--------------------------|
--------------------------|-----7--9--0--7--9--------|
-----2-----3-----4-----5--|--L--------------------5--|


  E  E  E  E  E  E  E  E     E  E  E  E  E  E  E  E   
--------------------------|--------------------------|
--------------------------|--------------------------|
-----7--9--0--7-----------|-----5--7-----5--7--3--5--|
--L--------------0--2--3--|--L--------3--------------|


  fill 4 3rd time note 2nd time                       
  E                             E  E  E  E  E  E  E   
-----------------------------------------------------|
-----------------------------------------------------|
--L-----------------------------5--5-----------------|
--------------------------------------3--L--3--3--5--|


  E  E  E  E  E  E  E  E     E  E  E  E  E  E  E  E   
--------------------------|--------------------------|
--------------------------|--------------------------|
-----7--9--0--7-----------|--------4-----2-----------|
--L--------------3--4--0--|--L--0-----0-----0--0--5--|


  fill 1 2nd time fill 5 3rd time                       
  E                               E  E  E  E  E  E  E   
-------------------------------------------------------|
----------------------------------------7-----------7--|
-------------------------------------9-----7--9--9-----|
--L-------------------------------5--------------------|


                             Chorus                      
  E  E  E  E  E  E  E  E     E      E  Q    E  E  E  E   
--------------------------|-----------------------------|
--L--7--------------------|-----------------------------|
-----------------3--4--5--|--L------5--5-------8--7--5--|
--------5-----5-----------|-----------------------------|


                                3rd time note                    
  E  E  E  E  E  E  E  E     E  E             E  E  E  E  E  E   
--------------------------|-------------------------------------|
--------------------------|-----5----------------5--------------|
--L--5--5--3--5-----------|-------------------7-----5--7--------|
-----------------0--2--3--|--L-------------------------------3--|


  E  E  E  E  E  E  E  E     E  E  E  E  E  E  E  E     Q    E  E  E  E  E  E   
--------------------------|--------------------------|-------------------------|
--------------------------|--------------------------|-------------------------|
-----------------3--4--5--|--L--5--5--------8--7--5--|--L----5--3--5-----------|
--L--3--3-----------------|--------------------------|----------------0--2--3--|


  E  E  E  E  E  E  E  E     E  E  E  E  E  E  E  E   
--------------------------|--------5--4--------------|
-----5-----5--5--7--5-----|-----7--------7-----------|
--------7-----------------|-----------------3--4-----|
--L--------------------3--|-----------------------5--|


  E  E  E  E  E  E  E  E     E  E  E  E  E  E  E  E   
--------------------------|--------------------------|
--------------------------|--------------------------|
-----7--9--0--7--9--------|-----7--9--0--7-----------|
--L--------------------5--|--L--------------0--2--5--|


                             fill 3 3rd time                       
  E  E  E  E  E  E  E  E     E               E  E  E  E  E  E  E   
--------------------------|---------------------------------------|
--------------------------|------------------7-----------------7--|
-----5--7-----5--7--------|---------------------9--7-----3--4-----|
--L--------3-----------5--|--L------------------------------------|


  E  E  E  E  E  E  E  E     E  E  E  E  E  E  E  E   
--------------------------|--------------------------|
--L-----------------------|--------------------------|
-----7--9--0--7--9--------|-----7--9--0--7-----------|
-----------------------5--|--L--------------7--9--0--|


  E  E  E  E  E  E  E  E     E  E  E  E  E  E  E  E   
--------------------------|--------------------------|
--------------------------|--------------------------|
--------4-----2--4--------|--------------------------|
--L--0-----0-----------0--|-----2-----3-----4-----5--|


  E  E  E  E  E  E  E  E     E  E  E  E  E  E  E  E   
--------------------------|--------------------------|
--------------------------|--------------------------|
-----7--9--0--7--9--------|-----7--9--0--7-----------|
--L--------------------5--|--L--------------0--2--3--|


  E  E  E  E  E  E  E  E   
--------------------------|
--------------------------|
-----5--7-----5--7--3--5--|
--L--------3--------------|


  fill 4 3rd time note 2nd time                       
  E                             E  E  E  E  E  E  E   
-----------------------------------------------------|
-----------------------------------------------------|
--L-----------------------------5--5-----------------|
--------------------------------------3--L--3--3--5--|


  E  E  E  E  E  E  E  E     E  E  E  E  E  E  E  E   
--------------------------|--------------------------|
--------------------------|--------------------------|
-----7--9--0--7-----------|--------4-----2-----------|
--L--------------3--4--0--|--L--0-----0-----0--0--5--|


  fill 1 2nd time fill 5 3rd time                       
  E                               E  E  E  E  E  E  E   
-------------------------------------------------------|
----------------------------------------7-----------7--|
-------------------------------------9-----7--9--9-----|
--L-------------------------------5--------------------|


                             Chorus                      
  E  E  E  E  E  E  E  E     E      E  Q    E  E  E  E   
--------------------------|-----------------------------|
--L--7--------------------|-----------------------------|
-----------------3--4--5--|--L------5--5-------8--7--5--|
--------5-----5-----------|-----------------------------|


                                3rd time note                    
  E  E  E  E  E  E  E  E     E  E             E  E  E  E  E  E   
--------------------------|-------------------------------------|
--------------------------|-----5----------------5--------------|
--L--5--5--3--5-----------|-------------------7-----5--7--------|
-----------------0--2--3--|--L-------------------------------3--|


  E  E  E  E  E  E  E  E     E  E  E  E  E  E  E  E   
--------------------------|--------------------------|
--------------------------|--------------------------|
-----------------3--4--5--|--L--5--5--------8--7--5--|
--L--3--3-----------------|--------------------------|


                                3rd time note                    
  E  E  E  E  E  E  E  E     E  E             E  E  E  E  E  E   
--------------------------|-------------------------------------|
--------------------------|-----5----------------5--------------|
--L--5--5--3--5-----------|-------------------7-----5--7--------|
-----------------0--2--3--|--L-------------------------------3--|


  E  E  E  E  E  E  E  E     E  E  E  E  E  E  E  E   
--------------------------|--------------------------|
--------------------------|--------------------------|
-----------------3--4--5--|--L--7--9--0--7--9--------|
--L--3--3-----------------|-----------------------5--|


  E  E  E  E  E  E  E  E     E  E  E  E  E  E  E  E   
--------------------------|--------------------------|
--------------------------|--------------------------|
-----7--9--0--7-----------|-----5--7-----5--7--------|
--L--------------0--2--5--|--L--------3-----------5--|


  fill 3 3rd time                                                  
  E               E  E  E  E  E  E  E     E  E  E  E  E  E  E  E   
---------------------------------------|--------------------------|
------------------7-----------------7--|--L-----------------------|
---------------------9--7-----3--4-----|-----7--9--0--7--9--------|
--L------------------------------------|-----------------------5--|


  E  E  E  E  E  E  E  E     E  E  E  E  E  E  E  E   
--------------------------|--------------------------|
--------------------------|--------------------------|
-----7--9--0--7-----------|--------4-----2--4--------|
--L--------------7--9--0--|--L--0-----0-----------0--|


  E  E  E  E  E  E  E  E     E  E  E  E  E  E  E  E   
--------------------------|--------------------------|
--------------------------|--------------------------|
--------------------------|-----7--9--0--7--9--------|
-----2-----3-----4-----5--|--L--------------------5--|


  E  E  E  E  E  E  E  E     E  E  E  E  E  E  E  E   
--------------------------|--------------------------|
--------------------------|--------------------------|
-----7--9--0--7-----------|-----5--7-----5--7--3--5--|
--L--------------0--2--3--|--L--------3--------------|


  fill 4 3rd time note 2nd time                       
  E                             E  E  E  E  E  E  E   
-----------------------------------------------------|
-----------------------------------------------------|
--L-----------------------------5--5-----------------|
--------------------------------------3--L--3--3--5--|


  E  E  E  E  E  E  E  E     E  E  E  E  E  E  E  E   
--------------------------|--------------------------|
--------------------------|--------------------------|
-----7--9--0--7-----------|--------4-----2-----------|
--L--------------3--4--0--|--L--0-----0-----0--0--5--|


  fill 1 2nd time fill 5 3rd time                       
  E                               E  E  E  E  E  E  E   
-------------------------------------------------------|
----------------------------------------7-----------7--|
-------------------------------------9-----7--9--9-----|
--L-------------------------------5--------------------|


                             Chorus                      
  E  E  E  E  E  E  E  E     E      E  Q    E  E  E  E   
--------------------------|-----------------------------|
--L--7--------------------|-----------------------------|
-----------------3--4--5--|--L------5--5-------8--7--5--|
--------5-----5-----------|-----------------------------|


                                3rd time note                    
  E  E  E  E  E  E  E  E     E  E             E  E  E  E  E  E   
--------------------------|-------------------------------------|
--------------------------|-----5----------------5--------------|
--L--5--5--3--5-----------|-------------------7-----5--7--------|
-----------------0--2--3--|--L-------------------------------3--|


  E  E  E  E  E  E  E  E     E  E  E  E  E  E  E  E     Q    E  E  E  E  E  E   
--------------------------|--------------------------|-------------------------|
--------------------------|--------------------------|-------------------------|
-----------------3--4--5--|--L--5--5--------8--7--5--|--L----5--3--5-----------|
--L--3--3-----------------|--------------------------|----------------0--2--3--|


  E  E  E  E  E  E  Q       E  E  E  E  E  E  E  E     E  E  Q    E  E  E  E   
-------------------------|--------------------------|-------------------------|
-----5-----5-------------|--------------------------|-------------------------|
--------7-----5--7-------|-----------------3--4--5--|--L--5----------8--7--5--|
--L----------------------|-----0--2--3--5-----------|-------------------------|


  Q    E  E  E  E  E  E     E  E  E  E  E  E  E  E     E  E  Q    E  E  E  E   
-------------------------|--------------------------|-------------------------|
-------------------------|-----5-----5--------------|-------------------------|
--L----5--3--5-----------|--------7-----5--7--------|----------------3--4--5--|
----------------0--2--3--|--L--------------------3--|--L--3-------------------|


  E  E  E  E  E  E  E  E     E  E  E  E  E  E  E  E   
--------------------------|--------------------------|
--------------------------|--------------------------|
--L--5--5--------8--7--5--|--L--5--5--3--5-----------|
--------------------------|-----------------0--2--3--|


  E  E  E  E  E  E  E  E     E  Q    E  E  E  E  E   
--------------------------|-------------------------|
-----5-----5--------------|-------------------------|
--------7-----5--7--------|-----7----5--5-----------|
--L--------------------3--|----------------0--2--5--|


  solo start                         A                        
  E          E  E  E  E  E  E  E     E  E  E  E  E  E  E  E   
----------------------------------|--------------------------|
----------------------------------|--------------------------|
----------------------------------|--------------------------|
--L----------5--2--0--5--2-----5--|--L--5--2--0--5--2-----3--|


  G                                                   
  E  E  E  E  E  E  E  E     E  E  E  E  E  E  E  E   
--------------------------|--------------------------|
--------------------------|--------------------------|
-----5--7-----5--7--------|-----------------3--4-----|
--L--------3-----------5--|--L--5--2--0--5--------5--|


  A                                                   
  E  E  E  E  E  E  E  E     E  E  E  E  E  E  E  E   
--------------------------|--------------------------|
--------------------------|--------------------------|
--------------------------|--------------------------|
--L--5--2--0--5--2-----5--|--L--5--2--0--5--2-----3--|


  G                          A                        
  E  E  E  E  E  E  E  E     E  E  E  E  E  E  E  E   
--------------------------|--------------------------|
--------------------------|--------------------------|
-----5--7-----5--7--------|--------------------------|
--L--------3-----------5--|--L--5--2--0--5--2-----5--|


  E  E  E  E  E  E  E  E     E  E  E  E  E  E  E  E   
--------------------------|--------------------------|
--------------------------|--------------------------|
--------------------------|--------------------------|
--L--5--2--0--5--2-----5--|--L--5--2--0--5--2-----3--|


                                                      A                        
  E  E  E  E  E  E  E  E     E  Q.     E  E  E  E     E  E  E  E  E  E  E  E   
--------------------------|------------------------|--------------------------|
--------------------------|------------------------|--------------------------|
-----5--7--5--------------|-----4---------5--------|--------------------------|
--L-----------3--0-----2--|--L---------------3--5--|--L--5--2--0--5--2-----5--|


  E  E  E  E  E  E  E  E     Q    E  E  Q    E  E     E  E  E  E  E  E  E  E   
--------------------------|------------------------|--------------------------|
--------------------------|------------------------|-----------7--------------|
-----------------------3--|--L----L----------------|--------9--------3--4--5--|
--L--5--2--0--5--2--------|----------3--L----L--5--|--L--5--------------------|


  Chorus                                                 
  E      E  Q    E  E  E  E     E  E  E  E  E  E  E  E   
-----------------------------|--------------------------|
-----------------------------|--------------------------|
--L------5--5-------8--7--5--|--L--5--5--3--5-----------|
-----------------------------|-----------------0--2--3--|


     3rd time note                                               
  E  E             E  E  E  E  E  E     E  E  E  E  E  E  E  E   
-------------------------------------|--------------------------|
-----5----------------5--------------|--------------------------|
-------------------7-----5--7--------|-----------------3--4--5--|
--L-------------------------------3--|--L--3--3-----------------|


  E  E  E  E  E  E  E  E     Q    E  E  E  E  E  E     E  E  E  E  E  E  E  E   
--------------------------|-------------------------|--------------------------|
--------------------------|-------------------------|-----5-----5--5--7--5-----|
--L--5--5--------8--7--5--|--L----5--3--5-----------|--------7-----------------|
--------------------------|----------------0--2--3--|--L--------------------3--|


  E  E  E  E  E  E  E  E     E  E  E  E  E  E  E  E   
--------5--4--------------|--------------------------|
-----7--------7-----------|--------------------------|
-----------------3--4-----|-----7--9--0--7--9--------|
-----------------------5--|--L--------------------5--|


  E  E  E  E  E  E  E  E     E  E  E  E  E  E  E  E   
--------------------------|--------------------------|
--------------------------|--------------------------|
-----7--9--0--7-----------|-----5--7-----5--7--------|
--L--------------0--2--5--|--L--------3-----------5--|


  fill 3 3rd time                                                  
  E               E  E  E  E  E  E  E     E  E  E  E  E  E  E  E   
---------------------------------------|--------------------------|
------------------7-----------------7--|--L-----------------------|
---------------------9--7-----3--4-----|-----7--9--0--7--9--------|
--L------------------------------------|-----------------------5--|


  E  E  E  E  E  E  E  E     E  E  E  E  E  E  E  E   
--------------------------|--------------------------|
--------------------------|--------------------------|
-----7--9--0--7-----------|--------4-----2--4--------|
--L--------------7--9--0--|--L--0-----0-----------0--|


  E  E  E  E  E  E  E  E     E  E  E  E  E  E  E  E   
--------------------------|--------------------------|
--------------------------|--------------------------|
--------------------------|-----7--9--0--7--9--------|
-----2-----3-----4-----5--|--L--------------------5--|


  E  E  E  E  E  E  E  E     E  E  E  E  E  E  E  E   
--------------------------|--------------------------|
--------------------------|--------------------------|
-----7--9--0--7-----------|-----5--7-----5--7--3--5--|
--L--------------0--2--3--|--L--------3--------------|


  fill 4 3rd time note 2nd time                       
  E                             E  E  E  E  E  E  E   
-----------------------------------------------------|
-----------------------------------------------------|
--L-----------------------------5--5-----------------|
--------------------------------------3--L--3--3--5--|


  E  E  E  E  E  E  E  E     E  E  E  E  E  E  E  E   
--------------------------|--------------------------|
--------------------------|--------------------------|
-----7--9--0--7-----------|--------4-----2-----------|
--L--------------3--4--0--|--L--0-----0-----0--0--5--|


  fill 1 2nd time fill 5 3rd time                       
  E                               E  E  E  E  E  E  E   
-------------------------------------------------------|
----------------------------------------7-----------7--|
-------------------------------------9-----7--9--9-----|
--L-------------------------------5--------------------|


                             Chorus                      
  E  E  E  E  E  E  E  E     E      E  Q    E  E  E  E   
--------------------------|-----------------------------|
--L--7--------------------|-----------------------------|
-----------------3--4--5--|--L------5--5-------8--7--5--|
--------5-----5-----------|-----------------------------|


                                3rd time note                    
  E  E  E  E  E  E  E  E     E  E             E  E  E  E  E  E   
--------------------------|-------------------------------------|
--------------------------|-----5----------------5--------------|
--L--5--5--3--5-----------|-------------------7-----5--7--------|
-----------------0--2--3--|--L-------------------------------3--|


  E  E  E  E  E  E  E  E     E  E  E  E  E  E  E  E     Q    E  E  E  E  E  E   
--------------------------|--------------------------|-------------------------|
--------------------------|--------------------------|-------------------------|
-----------------3--4--5--|--L--5--5--------8--7--5--|--L----5--3--5-----------|
--L--3--3-----------------|--------------------------|----------------0--2--3--|


  E  E  E  E  E  E  Q       E  E  E  E  E  E  E  E     E  E  Q    E  E  E  E   
-------------------------|--------------------------|-------------------------|
-----5-----5-------------|--------------------------|-------------------------|
--------7-----5--7-------|-----------------3--4--5--|--L--5----------8--7--5--|
--L----------------------|-----0--2--3--5-----------|-------------------------|


  Q    E  E  E  E  E  E     E  E  E  E  E  E  E  E     E  E  Q    E  E  E  E   
-------------------------|--------------------------|-------------------------|
-------------------------|-----5-----5--------------|-------------------------|
--L----5--3--5-----------|--------7-----5--7--------|----------------3--4--5--|
----------------0--2--3--|--L--------------------3--|--L--3-------------------|


  E  E  E  E  E  E  E  E     E  E  E  E  E  E  E  E   
--------------------------|--------------------------|
--------------------------|--------------------------|
--L--5--5--------8--7--5--|--L--5--5--3--5-----------|
--------------------------|-----------------0--2--3--|


  E  E  E  E  E  E  E  E     E  E  E  E  H          
--------------------------|-----------------------||
--------------5-----------|-----------------------||
--------1--2-----1--2--5--|--2--0-----------------||
--L--3--------------------|--------3--3--L--------||




Duration Legend
---------------
W - whole
H - half
Q - quarter
E - 8th
S - 16th
T - 32nd
X - 64th
. - note dotted
|-n-|  - n-tuplets


Tablature Legend
----------------
L - tied note
x - dead note
g - grace note
(n) - ghost note
> - accentuded note
NH - natural harmonic
AH - artificial harmonic
TH - tapped harmonic
SH - semi harmonic
PH - pitch harmonic
h - hammer on
p - pull off
b - bend
br - bendRelease
pb - preBend
pbr - preBendRelease
brb - bendReleaseBend
\n/ - tremolo bar dip
\n - tremolo bar dive
-/n - tremolo bar Release up
/n\ - tremolo bar inverted dip
/n - tremolo bar return
-\n - tremolo bar Release down
S - shift slide
s - legato slide
/ -  slide into from below or out of upwards
\ -  slide into from above or out of downwards
~ - vibrato
W - wide vibrato
tr - trill
TP - tremolo picking
T - tapping
S - slap
P - pop
< - fade in
^ - brush up
v - brush down

            
            
Suggest correction
Creating personal tab
Creating personal tab
You can edit any tab online and save it as your Personal.

You can edit, replace or remove any tab part or add personal notes – all changes will be seen only by you.

Personal tabs can be accessed anytime from any device, even offline.
Learn more »
Give kudos to tab author, rate the tab!
1 2 3 4 5
comments
print report bad tab
guest
Wanna post a correction for this tab? Suggest correction