Oops, an error
Loading. Please wait.

Vincent Obrien tab

version 2
version 2

Whole song

by M. Ward
28 views 3 this week
no commentswrite comment
1 2 3 4 5
3 more votes to show rating
add to favorites
×
Save as Personal and add changes to this tab that will be seen only by you. Learn more ›
×
You can save this tab as Personal to edit and correct it or add notes. All changes will be seen only by you. Learn more »
launch autoscroll
font size
0
reset
how to read this tab
guitar tuner
edit
Autoscroll
slow
fast
+/-
esc
set tempo
stop
I based this off an acoustic performance found here: https://www.youtube.com/watch?v=PXPl_XqGHZA

No capo. A little more of a pain to tune down to OPEN D, but it sounds great and is worth the time. I didn't 
write out the lyrics, but if you know or listen to the song, the divisions between intro/interludes, verses,
and chorus are pretty obvious.

Tuning: D A D F# B D  

[Intro]
D |--0----x-x-x-x-x-\0-0-0-0-0----0--0-x-0-x-0-0-0-0-0-0-0--------------------|
B |--3---/7-7-7-7-5-\3-0-0-0-3----3--3-5-3-5-7-7-7-7-5-5-3--------------------|
F#|--0----0-0-0-0-0-\0-0-0-0-0----0--0-0-0-0-0-0-0-0-0-0-0--------------------|
D |--0----0-0-0-0-0-\0-0-0-0-0----0--0-0-0-0-0-0-0-0-0-0-0--------------------|
A |--5---/7-7-7-7-7-\5-5-5-5-5----x--x-x-x-x-x-x-x-x-x-x-x--------------------|
D |0-0----0-0-0-0-0-\0-0-0-0-0--5-5--5-5-5-5/7-7-7-7-5-5-5--------------------|

D |--0----x-x-x-x-x-x-x-0-0-------x--x-x-x--0-0-0-0--x-x-0--------------------|
B |--3---/7-7-7-7-7-8-7-5-3-------5--5-5-5-/7-7-7-7-\5-5-3--------------------|
F#|--0----0-0-0-0-0-0-0-0-0-------0--0-0-0--0-0-0-0--0-0-0--------------------|
D |--0----0-0-0-0-0-0-0-0-0-------0--0-0-0--0-0-0-0--0-0-0--------------------|
A |--5---/7-7-7-7-7-7-7-7-5-------x--x-x-x--x-x-x-x--x-x-x--------------------|
D |0-0----0-0-0-0-0-0-0-0-0-----5-5--5-5-5-/7-7-7-7-\5-5-5--------------------|

[Verse]
D |--0---0-0-0-------0---0-0-0-------0---0-0-0------x-x-x-x---x-x--0----------|
B |--3---3-3-3-------3---3-3-3-------3---3-3-3-----/7-7-7-7--\5-5-\3----------|
F#|--0---0-0-0-------0---0-0-0-------0---0-0-0------0-0-0-0---0-0--0----------|
D |--0---0-0-0-------0---0-0-0-------4---4-4-4------0-0-0-0---0-0--0----------|
A |--5---5-5-5-------5---5-5-5-------5---5-5-5------x-x-x-x---x-x--x----------|
D |0-0---0-0-0-----4-4---4-4-4-----5-5---5-5-5-----/7-7-7-7---7-7-\5----------|

[Chorus]
D |--0---0-0-0-------x----x-x-x-------------------------0-0---0-0---0-0---0------0-0---0-0----0-0---0-0|
B |--3---3-3-3-------7----7-7-7---------3-3-----3-3-----3-3---3-3---3-3---3------3-3---3-3----3-3---3-3|
F#|--0---0-0-0-------0----0-0-0---------0-0-----0-0-----0-0---0-0---0-0---0------0-0---0-0----0-0---0-0|
D |--0---0-0-0-------0----0-0-0-------0-0-0-----0-0-----0-0---0-0---0-0---0------0-0---0-0----0-0---0-0|
A |--x---x-x-x-------x----x-x-x---------0-0---4-4-4---2-2-2-2-2-2-2-2-2-2-2------2-2---2-2----5-5---5-5|
D |5-5---5-5-5----/7-7----7-7-7------------------------------------------------2-2-2-2-2-2-/5-5-5-5-5-5|

D |----0-0-0-0-0-0------------------------------------------------------------|
B |----7-7-7-7-7-7------------------------------------------------------------|
F#|----0-0-0-0-0-0------------------------------------------------------------|
D |----0-0-0-0-0-0------------------------------------------------------------|
A |----x-x-x-x-x-x------------------------------------------------------------|
D |-/7-7-7-7-7-7-7------------------------------------------------------------|

"Breakdown]
This is the part where he riffs, following the line, "Another cheap shot, here it comes..."
D |----0-0--0---0-0--0---0-0---------------------------------------------------|
B |----6-7-/10--6-7-/10--6-7---------------------------------------------------|
F#|----0-0--0---0-0--0---0-0---------------------------------------------------|
D |----0-0--0---0-0--0---0-0---------------------------------------------------|
A |----0-0--0---0-0--0---0-0---[x4]--------------------------------------------|
D |----0-0--7---0-0--0---0-0---------------------------------------------------|


************************************

| x   Dead note
| /   Slide up
| \   Slide down

************************************

            
            
Suggest correction
Creating personal tab
Creating personal tab
You can edit any tab online and save it as your Personal.

You can edit, replace or remove any tab part or add personal notes – all changes will be seen only by you.

Personal tabs can be accessed anytime from any device, even offline.
Learn more »
Give kudos to tab author, rate the tab!
1 2 3 4 5
comments
print report bad tab
guest
Wanna post a correction for this tab? Suggest correction