Oops, an error
Loading. Please wait.
We have an official Another One tab made by UG professional guitarists. Check out the tab »
×
1,900 views 6 this week
1 commentread comment
1 2 3 4 5
x 3
add to favorites
×
Save as Personal and add changes to this tab that will be seen only by you. Learn more ›
×
You can save this tab as Personal to edit and correct it or add notes. All changes will be seen only by you. Learn more »
launch autoscroll
font size
0
reset
transpose
0
reset
simplify chords
display chords
guitar tuner
edit
Autoscroll
slow
fast
+/-
esc
set tempo
stop
Author
Difficulty
Strumming
There is no strumming pattern for this song yet. and get +5 IQ
-------------------------------------------------------------------------------
                             Another One - Mac Demarco
-------------------------------------------------------------------------------
Tabbed by: Jacob Lacayo
E-mail: jacoblac5@gmail.com

Tuning: EADGBE Standard

e|--0----0----6-----4----5----9------6-----4----------5---4-----2----------|
B|--0----2----7-----4----7----7------7-----4----------7---5-----4----------|
G|--1----1----6-----4----7----7------6-----4----------7---4-----4----------|
D|--2----2----8-----6----7----7------8-----6----------7---6-----4----------|
A|--2----2----6-----6----5----5------6-----6----------5---4-----2----------|
E|--0----0----X-----4----X----X------X-----4----------X---X-----X----------|
    E    E6  D#m7  G#m   D   DMaj7  D#m7  G#m         D  C#m7   B


Intro chords: E - E6 - D#m7 - G#m - D - DMaj7 - D#m7 - G#m


Verse:
    E        E6
Feelin' so confused
    D#m7         G#m
You dont know what to do
       D      DMaj7                    D#m7   G#m
Afraid she might not love you anymore
   E               E6               D#m7           G#m
And though she says she does and hasnt lost your trust
       D      DMaj7               D#m7   G#m           
Who could there be knockin at her door

Chorus:
D     C#m7    B
Must be another one
D     C#m7    B
Must be another one
D     C#m7    B
Must be another one she loves
[x2]

(Intro Riff)x2

Verse 2:
   E          E6
The feelin' never stops
    D#m7     G#m
And neither does the clock
   D        DMaj7        D#m7   G#m
Wishin' for tomorrow today
  E               E6    
She still says shes true
   D#m7        G#m
So you start comin' to
  D                DMaj7       D#m7    G#m    
Just as that old knockin' comes to stay

Chorus 2:
 D    C#m7   B
Must be another one
 D    C#m7   B
Must be another one
 D    C#m7   B
Must be another one she loves

Intro Riff:

e|---------------------------------------------------------------------------|
B|---7----7-----7--------------------------------7---------------------------|
G|-----8-----6---------6--------------6---7---9-------6\4--------------------|
D|-----------------9------6---8---9------------------------------------------|
A|---------------------------------------------------------------------------|
E|---------------------------------------------------------------------------|

Chorus Riff:

e|---------------------------------------------------------------------------|
B|---10------9----------------------------9---12-----------------------------|
G|-------11-----9-------------8---9---11-------------------------------------|
D|-------------------9---11--------------------------------------------------|
A|---------------------------------------------------------------------------|
E|---------------------------------------------------------------------------|


Thank you Mac Demarco.

Bless
************************************

| /   slide up
| \   slide down
| h   hammer-on
| p   pull-off
| ~   vibrato
| +   harmonic
| x   Mute note
| b   Bend
| pb  Pre-bend
| br  Bend release
| pbr Pre-bend release
| brb Bend release bend

************************************

            
            
Suggest correction
Creating personal tab
Creating personal tab
You can edit any tab online and save it as your Personal.

You can edit, replace or remove any tab part or add personal notes – all changes will be seen only by you.

Personal tabs can be accessed anytime from any device, even offline.
Learn more »
Give kudos to tab author, rate the tab!
1 2 3 4 5
comments
print report bad tab
1 comment total.
-1 reply
Max5130 10 Sep 08, 2015 12:45 PM

Lack of accuracy. Clearly wrong. This tab/chord layout sounds nothing like the Mac Demarco song "Another one" this is a damn shame. The tab should be deleted immediately. It is a disgrace to Mac Demarco and his music. Shame one you!

guest
You may want to rate the tab now too:
select rating
Wanna post a correction for this tab? Suggest correction