Oops, an error
Loading. Please wait.

Cooking Up Something Good bass

version 3
version 3

Whole song

1,009 views 24 this week
1 commentread comment
1 2 3 4 5
x 4
add to favorites
×
Save as Personal and add changes to this tab that will be seen only by you. Learn more ›
×
You can save this tab as Personal to edit and correct it or add notes. All changes will be seen only by you. Learn more »
launch autoscroll
font size
0
reset
guitar tuner
edit
Autoscroll
slow
fast
+/-
esc
set tempo
stop
Author
Difficulty
Cooking Up Something Good
Mac DeMarco
Bass Tab
Standard Tuning
Tab created by: Ben Molenhouse

\ = Slide Down

Intro:
G|--------------------------------------|-----------------------------------|
D|--------------------------------------|-----------------------------------|
A|-17\10--7-10-7------------------------|-10--7-10-7------------------------|
E|---------------10-8-10-5--5-5--3-8-10-|------------10-8-10-5--5-5--3-8-10-|

Verse 1:
G|-----------------------------------|
D|-----------------------------------| X4
A|-10--7-10-7------------------------|
E|------------10-8-10-5--5-5--3-8-10-|

Chorus 1:
G|----------------------------------|
D|----------------------------------| X4
A|-10--7-10-7-----------------------|
E|------------10-11-11-4--4-4-4-5-5-|

Verse 2 (Same as Verse 1):
G|-----------------------------------|
D|-----------------------------------| X4
A|-10--7-10-7------------------------|
E|------------10-8-10-5--5-5--3-8-10-|

Chorus 2 (Same as Chorus 1):
G|----------------------------------|
D|----------------------------------| X4
A|-10--7-10-7-----------------------|
E|------------10-11-11-4--4-4-4-5-5-|

Outro:
G|------------------------------|
D|------------------------------| 
A|-10--10-10--10-10--10-10-10---|
E|---------------------------10-|


            
            
Suggest correction
Creating personal tab
Creating personal tab
You can edit any tab online and save it as your Personal.

You can edit, replace or remove any tab part or add personal notes – all changes will be seen only by you.

Personal tabs can be accessed anytime from any device, even offline.
Learn more »
There is a new version of this tab from 1 day ago which you may like more. Go check it out:
comments
print report bad tab
1 comment total.
+1 reply
bennyethescienceguy53 10 Nov 22, 2017 12:22 AM

by far the easiest version of this tab to read.

guest
You may want to rate the tab now too:
select rating
Wanna post a correction for this tab? Suggest correction