Oops, an error
Loading. Please wait.

Goodbye Weekend chords

version 2
version 2

Whole song

  • This version includes the lead guitar and the seco... Show more
1,297 views 15 this week
no commentswrite comment
1 2 3 4 5
3 more votes to show rating
add to favorites
×
Save as Personal and add changes to this tab that will be seen only by you. Learn more ›
×
You can save this tab as Personal to edit and correct it or add notes. All changes will be seen only by you. Learn more »
launch autoscroll
font size
0
reset
transpose
0
reset
simplify chords
display chords
guitar tuner
edit
Autoscroll
slow
fast
+/-
esc
set tempo
stop
Author
About this tab version
This version includes the lead guitar and the second guitar. This version also can be played on classic guitar. Was this info helpful? Yes No
Strumming
There is no strumming pattern for this song yet. and get +5 IQ
Goodbye Weekend - Mac Demarco:
Tuning: Standard (E A D G B e)
Capo: No capo original tune.
Some advices in the end.
Please don't forget to rate the tab.
No capo:
      E A D G B e
G   : 3 2 0 0 0 2
E7  : 0 2 0 1 0 0
F7  : 1 3 1 2 1 1
D7  : - - 0 2 1 2
Am7 : 0 0 2 0 1 0
--------------------------------------------------------------------------------------------------------------
Guitar 1:
Intro: G E7 Am7 D7

Verse:
G       E7       Am7     D7
Goodbye weekend, so long darling
G              E7         Am7    D7
Macky's been a bad, bad, boy
G               E7            Am7        D7
And what they're preaching is sure to change me
G              E7   Am7          D7
Should rearrange me or so they thought

G                      F7                     Am7         D7
So don't go telling me how this boy should be leading his own life
G                   F7                     Am7         D7
Sometimes rough but generally speaking I'm fine
G                           F7                       Am7         D7
If you don't agree with the things that go on within my life
G                           F7                           Am7     D7    D7
Well honey that's fine just know that you're wasting your time

G             E7    Am7      D7
Sort me, place me, give me a sign
G          E7                 Am7             D7
Repeat the mantra when you're stepping out of line
G            E7       Am7         D7
Give me your number, something to be
G                E7                       Am7         D7
May help out the country boy but it won't work out on me

G                      F7                     Am7         D7
So don't go telling me how this boy should be leading his own life
G                   F7                     Am7         D7
Sometimes rough but generally speaking I'm fine
G                           F7                       Am7         D7
If you don't agree with the things that go on within my life
G                           F7                           Am7     D7    D7
Well honey that's fine just know that you're wasting your time

Solo: G E7 Am7 D7

G                      F7                     Am7         D7
So don't go telling me how this boy should be leading his own life
G                   F7                     Am7         D7
Sometimes rough but generally speaking I'm fine
G                           F7                       Am7         D7
If you don't agree with the things that go on within my life
G                           F7                           Am7     D7    D7
Well honey that's fine just know that you're wasting your time
G 

Guitar 2: 
Goodbye weekend, so long darling
Macky's been a bad, bad, boy
And what they're preaching is sure to change me
Should rearrange me or so they thought

e|-12----10------------------------------|
B|-----------------------10----12----10--|
G|----12----9/7-7------------------------|  x4 Intro
D|-----------------9/10-----10----12-----|  x4 Verse
A|---------------------------------------|
E|---------------------------------------|

So don't go telling me how this boy should be leading his own life (1)
Sometimes rough but generally speaking I'm fine(2)
If you don't agree with the things that go on within my life (1)
Well honey that's fine just know that you're wasting your time(3)

(1)
e|---------------------------------------------| 
B|---8--------10------10------10-12/15-8---12--|
G|-----7---------8-------9---------------9-----|
D|-9-----9/10------10------10------------------| 
A|---------------------------------------------|
E|---------------------------------------------|
(2)
e|----------------------------------------------| 
B|---8--------10------10------10-12-------------|
G|-----7---------8-------9----------11------11--|
D|-9-----9/10------10------10----------10/9-----| 
A|----------------------------------------------|
E|----------------------------------------------|
(3)
e|-------------------------------------------------------| 
B|---8--------10------10------10-12----------------------|
G|-----7---------8-------9----------11------11-11------11|
D|-9-----9/10------10------10----------10-9-------10-9---| 
A|-------------------------------------------------------|
E|-------------------------------------------------------|


Sort me, place me, give me a sig
Repeat the mantra when you're stepping out of line
Give me your number, something to be
May help out the country boy but it won't work out on me

e|-12----10------------------------------|
B|-----------------------10----12----10--|
G|----12----9/7-7------------------------|  x4
D|-----------------9/10-----10----12-----| 
A|---------------------------------------|
E|---------------------------------------|

So don't go telling me how this boy should be leading his own life (1)
Sometimes rough but generally speaking I'm fine(2)
If you don't agree with the things that go on within my life (1)
Well honey that's fine just know that you're wasting your time(3)

(1)
e|---------------------------------------------| 
B|---8--------10------10------10-12/15-8---12--|
G|-----7---------8-------9---------------9-----|
D|-9-----9/10------10------10------------------| 
A|---------------------------------------------|
E|---------------------------------------------|
(2)
e|----------------------------------------------| 
B|---8--------10------10------10-12-------------|
G|-----7---------8-------9----------11------11--|
D|-9-----9/10------10------10----------10/9-----| 
A|----------------------------------------------|
E|----------------------------------------------|
(3)
e|-------------------------------------------------------| 
B|---8--------10------10------10-12----------------------|
G|-----7---------8-------9----------11------11-11------11|
D|-9-----9/10------10------10----------10-9-------10-9---| 
A|-------------------------------------------------------|
E|-------------------------------------------------------|

Solo:

e|--------15-----------------------------------------------------------------|
B|-15/17------17--15--17--15------15-----------------------------------------|
G|----------------------------16------16--14--16-17-16--14--16--12--14-------|
D|---------------------------------------------------------------------------|
A|---------------------------------------------------------------------------|
E|---------------------------------------------------------------------------|

e|--------15-----------------------------------------------------------------|
B|-15/17------17--15--17--15------15-----------------------------------------|
G|----------------------------16------16--14--16-17-16--14--16--12--14-------|
D|---------------------------------------------------------------------------|
A|---------------------------------------------------------------------------|
E|---------------------------------------------------------------------------|

e|-17b18--17--15------15--17-------------------------------------------------|
B|----------------17---------------------------------------------------------|
G|---------------------------------------------------------------------------|
D|---------------------------------------------------------------------------|
A|---------------------------------------------------------------------------|
E|---------------------------------------------------------------------------|

e|--------15-----------------------------------------------------------------|
B|-15/17------17--15--17--15------15-----------------------------------------|
G|----------------------------16------16--14--16-17-16--14--16--12--14-------|
D|---------------------------------------------------------------------------|
A|---------------------------------------------------------------------------|
E|---------------------------------------------------------------------------|

e|--------15-------------------------------------------------------------------|
B|-15/17------17--15--17--15------15---------------------------15b17-15b17-17--|
G|----------------------------16------16--14--16-17-16--14--16-----------------|
D|-----------------------------------------------------------------------------|
A|-----------------------------------------------------------------------------|
E|-----------------------------------------------------------------------------|

So don't go telling me how this boy should be leading his own life (1)
Sometimes rough but generally speaking I'm fine(2)
If you don't agree with the things that go on within my life (1)
Well honey that's fine just know that you're wasting your time(3)

(1)
e|---------------------------------------------| 
B|---8--------10------10------10-12/15-8---12--|
G|-----7---------8-------9---------------9-----|
D|-9-----9/10------10------10------------------| 
A|---------------------------------------------|
E|---------------------------------------------|
(2)
e|----------------------------------------------| 
B|---8--------10------10------10-12-------------|
G|-----7---------8-------9----------11------11--|
D|-9-----9/10------10------10----------10/9-----| 
A|----------------------------------------------|
E|----------------------------------------------|
(3)
e|-------------------------------------------------------| 
B|---8--------10------10------10-12----------------------|
G|-----7---------8-------9----------11------11-11------11|
D|-9-----9/10------10------10----------10-9-------10-9---| 
A|-------------------------------------------------------|
E|-------------------------------------------------------|

Some tips:
1)You can change some chords:
            E A D G B e
G:  ->  G6: 3 2 0 0 0 0 (I play G6 rarely as solo, but I always as a duo guitar)
2)The verse and the chorus are tabbed between 8 and 12 because, I usually play 
with classic guitar,and is hard to reach fret 15 or higher fluently by playing these guitars.



            
            
Suggest correction
Creating personal tab
Creating personal tab
You can edit any tab online and save it as your Personal.

You can edit, replace or remove any tab part or add personal notes – all changes will be seen only by you.

Personal tabs can be accessed anytime from any device, even offline.
Learn more »
Give kudos to tab author, rate the tab!
1 2 3 4 5
comments
print report bad tab
guest
You may want to rate the tab now too:
select rating
Wanna post a correction for this tab? Suggest correction