Oops, an error
Loading. Please wait.
We have an official Let Her Go tab made by UG professional guitarists. Check out the tab »
×
163 views 12 this week
no commentswrite comment
1 2 3 4 5
3 more votes to show rating
add to favorites
×
Save as Personal and add changes to this tab that will be seen only by you. Learn more ›
×
You can save this tab as Personal to edit and correct it or add notes. All changes will be seen only by you. Learn more »
launch autoscroll
font size
0
reset
how to read this tab
guitar tuner
edit
Autoscroll
slow
fast
+/-
esc
set tempo
stop
Mac DeMarco - Let Her Go (Tab + Chords)

Muy bien, esta es una canción un poco fácil de tocar, solo la Intro y el Chorus necesitan 
un poco de práctica y sonara como lo interpreta Mac DeMarco: https://www.youtube.com/watch?v=-6ckZzR1l3c
Si encuentran algun error por favor me corrigen, Buena suerte.

Si quieren mas Tabs o Chords, Pidanmelos aqui: https://www.youtube.com/channel/UCwPorSvv_AZMc9zVWnyz2sw
Disfruten esta canción. :)

-Capo 4st fret  -Standard tunning

Aquí les dejo los acordes (Con capo 4st fret):
C/G: 332010
F:   x3321x
B°:  x2303x
Am7: x02010
Em7: 020000
F*:  130000

[Intro]
C/G   F   B°  
C/G   F   B°
C/G   F   B°

 |C/G           |F  |B° |
e|--0--0--------|---|---|
B|--1-----1-----|---|---|
G|--0--------0--|---|---|
D|--2-----------|---|---|
A|--3-----------|---|---|
E|--3-----------|---|---|

[Verse]
C/G               F      B°   C/G          F     B°
Tell her that you love her, if you really love her
C/G               F             B°           C/G         F          B°
But when your heart just aint sure, let her know

C/G            F  B°   C/G              F      B°
Growing by the hour, love just like a flower
C/G                   F                B°
But when the flower dies, youve got to say goodbye
           C/G      F         B°       B°
And let her go

[Chorus]
Let her go 
 |Am7           |Em7  |Am7           |Em7  |F*               |
e|--0--------3--|--0--|--0-----------|--0--|--0--0--0--0--0--|
B|--1--0--1-----|--0--|--1--0--1--3--|--0--|--0--0--0--0--0--|
G|--0-----------|--0--|--0-----------|--0--|--0--0--0--0--0--|  x2 
D|--2-----------|--0--|--2-----------|--0--|--0--0--0--0--0--|
A|--0-----------|--2--|--0-----------|--2--|--3--3--3--3--3--|
E|--x-----------|--0--|--x-----------|--0--|--1--1--0--1--1--|

[Verse]
C/G                  F   B°   C/G                 F      B°
Tell her that youll be there, if youll really be there
C/G                F             B°
Separations supposed to make the heart grow fond
           C/G         F          B°
But it dont
C/G                F    B°        C/G              F      B°
So tell her that you love her, if you really love her
   C/G                  F      B°                  C/G       F      B°      B°
But when your heart just aint sure, let her go

[Chorus]
Let her go 

 |Am7           |Em7  |Am7           |Em7  |F*               |
e|--0--------3--|--0--|--0-----------|--0--|--0--0--0--0--0--|
B|--1--0--1-----|--0--|--1--0--1--3--|--0--|--0--0--0--0--0--|
G|--0-----------|--0--|--0-----------|--0--|--0--0--0--0--0--|  x4 
D|--2-----------|--0--|--2-----------|--0--|--0--0--0--0--0--|
A|--0-----------|--2--|--0-----------|--2--|--3--3--3--3--3--|
E|--x-----------|--0--|--x-----------|--0--|--1--1--0--1--1--|

 |C/G  |
e|--0--|
B|--1--|
G|--0--|
D|--2--|
A|--3--|
E|--3--| END :)

            
            
Suggest correction
Creating personal tab
Creating personal tab
You can edit any tab online and save it as your Personal.

You can edit, replace or remove any tab part or add personal notes – all changes will be seen only by you.

Personal tabs can be accessed anytime from any device, even offline.
Learn more »
Give kudos to tab author, rate the tab!
1 2 3 4 5
comments
print report bad tab
guest
You may want to rate the tab now too:
select rating
Wanna post a correction for this tab? Suggest correction