Oops, an error
Loading. Please wait.

Moonlight On The River bass

331 views 42 this week
no commentswrite comment
1 2 3 4 5
1 last vote to show rating
add to favorites
×
Save as Personal and add changes to this tab that will be seen only by you. Learn more ›
×
You can save this tab as Personal to edit and correct it or add notes. All changes will be seen only by you. Learn more »
launch autoscroll
font size
0
reset
guitar tuner
edit
Autoscroll
slow
fast
+/-
esc
set tempo
stop
It's bassiscally just two riffs throughout but slightly varied with almost every repitition.

[Intro]

G|----------------|----------------|----------------|----------------|
D|----------------|----------------|----------------|----------------|
A|2~---x2--2~--2--|6~----6-x6~--6--|4~-----44~-----x|4-4~-4--4~--442-|
E|----------------|----------------|----------------|----------------|

G|----------------|----------------|----------------|----------------|
D|----------------|----------------|----------------|----------------|
A|2~----2-x2~--2--|6~----6-x6~-----|4~----4-x4-4~---|4~----4-4-4~--4-|
E|----------------|----------------|----------------|----------------|


[1st Verse]

I'd say, "see you later,"...

G|----------------|----------------|----------------|----------------|
D|----------------|----------------|----------------|----------------|
A|2~----2-x2~--2--|6~----6-x6~--6--|4~----4-x4~--4--|4~----4-x4~-xx4-|
E|----------------|----------------|----------------|----------------|

G|----------------|----------------|----------------|----------------|
D|----------------|----------------|----------------|----------------|
A|2~----2-x2~--2--|6~----6-x6~--6--|4~----4-x4~--4--|4~----4-x4~-xx4-|
E|----------------|----------------|----------------|----------------|

G|----------------|----------------|----------------|----------------|
D|----------------|----------------|----------------|----------------|
A|2~----2-x2~--2--|6-6~--6-x6~--6--|4~----4-x4~--4--|4~----4-x4~-xx4-|   
E|----------------|----------------|----------------|----------------|

G|----------------|----------------|----------------|----------------|
D|----------------|----------------|----------------|----------------|
A|2~----2-x2~--2--|6~-----------6--|4-4~--4--4~--4--|4-4---4-x4~-xx4-|   
E|----------------|----------------|----------------|----------------|


[Chorus]

I'm home, with moonlight on the river...

G|----------------|----------------|----------------|----------------|
D|----------------|----------------|----------------|----------------|
A|6~----6-x6~--6--|----------------|4~----4-x4~--xx-|4~----4-x4~---4-|
E|----------------|4~----4-x4~--4--|----------------|----------------|

G|----------------|----------------|----------------|----------------|
D|----------------|----------------|----------------|----------------|
A|6~----6-x6~--6--|----------------|4~----4-x4~--4--|4~----4-x4-4-42-|
E|----------------|4~----4-x4~--4--|----------------|----------------|


[2nd Verse]

G|----------------|----------------|----------------|----------------|
D|----------------|----------------|----------------|----------------|
A|2~----2-x2~-8/9-|6-6~--6-x6~-----|4-4~--4-x4~-----|4-4~--2--4-4~-4-|   
E|----------------|----------------|----------------|----------------|

G|----------------|----------------|----------------|----------------|
D|----------------|----------------|----------------|----------------|
A|2~----2-x2~--2--|6-6~--6-x6~--6--|4-4~--4-x4~-----|4-4~--4-x4~--46-|   
E|----------------|----------------|----------------|----------------|

I'd say, "see you next time,"...

G|----------------|----------------|----------------|----------------|
D|----------------|----------------|----------------|----------------|
A|2-2~--2-x2~--2--|6-6~--6-6-6~-6--|4~----4-x4~----4|4-4~--4-4~-4-46-|   
E|----------------|----------------|----------------|----------------|

G|----------------|----------------|----------------|----------------|
D|----------------|----------------|----------------|----------------|
A|2~----x-2-2~-2--|6~----6-6-6~-6--|4-4~--4-4-4~-4--|24~-4--x4-4~-46-|   
E|----------------|----------------|----------------|----------------|

G|----------------|----------------|----------------|----------------|
D|----------------|----------------|----------------|----------------|
A|2~----x-2-2~-2/4|6-6~----6-6~----|4-4~----x----x--|x-4~--4-x-4~--4-|   
E|----------------|----------------|----------------|----------------|

G|----------------|----------------|----------------|----------------|
D|----------------|----------------|----------------|----------------|
A|2~----2x-2~--2--|6~----x-xx------|4-4~--x--4~--4--|44~---4--4-4--4-|   
E|----------------|----------------|----------------|----------------|


[Chorus]

I'm home, with moonlight on the river...

G|----------------|----------------|----------------|----------------|
D|----------------|----------------|----------------|----------------|
A|6~----6-x6~--6--|----------------|4~----4-x4~--xx-|4~----4-x4~---4-|
E|----------------|4~----4-x4~--4--|----------------|----------------|

G|----------------|----------------|----------------|----------------|
D|----------------|----------------|----------------|----------------|
A|6~----6-x6~--6--|----------------|4~----4-x4~--4--|4~----4-x4-4-42-|
E|----------------|4~----4-x4~--4--|----------------|----------------|

G|----------------|----------------|----------------|----------------|
D|----------------|----------------|----------------|----------------|
A|6-6~--6-x6-6~-6-|----------------|4~----4-x4~--4--|4~----4-x4-4-42-|
E|----------------|4~----4-x4~--4--|----------------|----------------|

G|----------------|----------------|----------------|----------------|
D|----------------|----------------|----------------|----------------|
A|6~----6-x6~--6--|----------------|4~----4-x4~--4--|4~----4-x4-4-42-|
E|----------------|4~----4-x4~--4--|----------------|----------------|


[Outro]

G|----------------|----------------|----------------|----------------|
D|----------------|----------------|----------------|----------------|
A|6~----6-x6~--6--|----------------|4~----4-x4~--4--|4~----4-x4-4-42-|
E|----------------|4~----4-x4~--4--|----------------|----------------|

G|----------------|----------------|----------------|----------------|
D|----------------|----------------|----------------|----------------|
A|6~----6-x6-6~66-|----------------|4~----4-x4~--4--|4-4~--4-x4-4-42-|
E|----------------|4~----4-x4~--4--|----------------|----------------|

G|----------------|----------------|----------------|----------------|
D|----------------|----------------|----------------|----------------|
A|6~----6-x6-6~66-|--------------2-|4~----4-x4~--4--|4-4~--4-x4-4-42-|
E|----------------|4~----4-x4~--4--|----------------|----------------|

G|----------------|----------------|----------------|----------------|
D|----------------|----------------|----------------|----------------|
A|6~----6-x6-6~66-|--------------2-|4~----4-x4~--4--|4-4~--4-x4-4-42-|
E|----------------|4~----4-x4~--4--|----------------|----------------|


G|----------------|----------------|----------------|----------------|
D|----------------|----------------|----------------|----------------|   x6
A|6~----6-x6-6~66-|--------------2-|4~----4-x4~--4--|4-4~--4-x4-4-42-|
E|----------------|4~----4-x4~--4--|----------------|----------------|

G|----------------|
D|----------------|
A|6~----6-x6-6~66-|
E|----------------|




************************************

| x   Dead note
| /   Slide up
| \   Slide down
| ~   Vibrato

************************************

            
            
Suggest correction
Creating personal tab
Creating personal tab
You can edit any tab online and save it as your Personal.

You can edit, replace or remove any tab part or add personal notes – all changes will be seen only by you.

Personal tabs can be accessed anytime from any device, even offline.
Learn more »
Give kudos to tab author, rate the tab!
1 2 3 4 5
comments
print report bad tab
guest
You may want to rate the tab now too:
select rating
Wanna post a correction for this tab? Suggest correction