Oops, an error
Loading. Please wait.
We have an official My Kind Of Woman tab made by UG professional guitarists. Check out the tab »
×

My Kind Of Woman tab

version 2
version 2

Whole song

Interactive

45,307 views 471 this week
11 commentsread comments
1 2 3 4 5
x 72
add to favorites
×
Save as Personal and add changes to this tab that will be seen only by you. Learn more ›
×
You can save this tab as Personal to edit and correct it or add notes. All changes will be seen only by you. Learn more »
launch autoscroll
font size
0
reset
how to read this tab
guitar tuner
edit
Autoscroll
slow
fast
+/-
esc
set tempo
stop
       [A]        
e|-0--|---10----8----7-------7-------7--------7--5-3-------3-------0~--------|
B|-0--|----7----7----8-----8-------8-------8--8--7-3-----3-----3---0~---0----|
G|-0--|----8----8----9---9-------9-------9---------4---4-----4-----0~-0------|
D|-2--|----------------------------------------------------------------------|
A|-2--|----------------------------------------------------------------------|
E|-0--|----------------------------------------------------------------------|
    
e|--10----8----7-------7-------7--------7--5-3-------3-------0~-----0--------|
B|---7----7----8-----8-------8-------8--8--7-3-----3-----3---0~---0----------|
G|---8----8----9---9-------9-------9---------4---4-----4-----0~-0----0-------|
D|---------------------------------------------------------------------------|
A|---------------------------------------------------------------------------|
E|---------------------------------------------------------------------------|


[Chorus]

e|-7-------7-------7---------10--8----7------7------7---------8-8----|
B|-8-----8-------8-------8----8--8----8----8------8------8----8-8----|
G|-7---7-------7-------7------7--7----9--9------9------9------9-9----|
D|-------------------------------------------------------------------|
A|-------------------------------------------------------------------|
E|-------------------------------------------------------------------|

            
            
Suggest correction
Creating personal tab
Creating personal tab
You can edit any tab online and save it as your Personal.

You can edit, replace or remove any tab part or add personal notes – all changes will be seen only by you.

Personal tabs can be accessed anytime from any device, even offline.
Learn more »
comments
print report bad tab
11 comments total. Showing first comments.
0 reply
Kotcheek 10 Dec 13, 2014 01:31 PM

this is just what i'm looking for dude. But how would you play the chorus? To me it sounds like it's the same chords but played in different orders?

+7 reply
Kotcheek 10 Dec 13, 2014 01:40 PM

e|7-------7-------7---------10-10----7------7------7---------8--8----
B|8-----8-------8-------8---12-12----8----8------8------8----10-10---
G|7---7-------7-------7--------------9--9------9------9--------------

kinda sounds like this to me, what do you think?

+1 reply
pjosecb 66 Jan 19, 2015 10:14 AM

hey, you nailed the chorus, man
added your contribution to the tab :)
and changed the tab type to "whole song"

guest
You may want to rate the tab now too:
select rating
Wanna post a correction for this tab? Suggest correction