Oops, an error
Loading. Please wait.
We have an official My Kind Of Woman tab made by UG professional guitarists. Check out the tab »
×

My Kind Of Woman tab

version 5
version 5

Whole song

Interactive

5,944 views 39 this week
1 commentread comment
1 2 3 4 5
x 8
add to favorites
×
Save as Personal and add changes to this tab that will be seen only by you. Learn more ›
×
You can save this tab as Personal to edit and correct it or add notes. All changes will be seen only by you. Learn more »
launch autoscroll
font size
0
reset
how to read this tab
guitar tuner
edit
Autoscroll
slow
fast
+/-
esc
set tempo
stop
Mac DeMarco - My Kind Of Woman
Track 8 from the album "2" (Captured Tracks 2012).

Tabbed by Isaac Murguia, October 2015.
Originally uploaded to Ultimate-Guitar.com
Contact: www.youtube.com/user/Goadiroth

CAPO on 2nd Fret. Tabbed relative to capo.
Recording is tuned a quarter higher of standard.
Use Audacity to pitch-shift it back down to standard if you don't wanna retune. :)

INTRO:
e|-0------|
B|-0------|
G|-0------|
D|-2------|
A|--------|
E|--------|

VERSE:
e|-10--8--7--------7--------7--------|-7--5--3-------3-------0-------|
B|-10--8--8------8--------8--------0-|-8--5--0-----0-------0-0-----0-|
G|-11-----9----9--------9--------9---|-7--5--0---0-------0---0---0---|
D|-10-------10-------10-------10-----|-------5-5---------------------|
A|-----------------------------------|-------------------------------|
E|-----------------------------------|-------------------------------| [x3]

e|-10--8--7--------7--------7--------|-7--5--3-------3-------0-------0----|
B|-10--8--8------8--------8--------0-|-8--5--0-----0-------0-0-----0------|
G|-11-----9----9--------9--------9---|-7--5--0---0-------0---0---0------0-|
D|-10-------10-------10-------10-----|-------5-5--------------------------|
A|-----------------------------------|------------------------------------|
E|-----------------------------------|------------------------------------|

CHORUS:
e|-7-------7-------7-------10--10-|-7-------7-------7--------8---8-|
B|-7-----7-------7-------7--------|-7-----7-------7-------7--8---8-|
G|-7---7-------7-------7----------|-7---7-------7-------7----8---8-|
D|---9-------9-------9------------|-9-9-------9-------9------9-9---|
A|--------------------------------|--------------------------------|
E|--------------------------------|--------------------------------| [x4]

Repeat INTRO
Repeat VERSE
Repeat CHORUS
Repeat INTRO

End. Please rate! :D

            
            
Suggest correction
Creating personal tab
Creating personal tab
You can edit any tab online and save it as your Personal.

You can edit, replace or remove any tab part or add personal notes – all changes will be seen only by you.

Personal tabs can be accessed anytime from any device, even offline.
Learn more »
comments
print report bad tab
1 comment total.
0 reply
knifesafety 10 Nov 23, 2015 01:45 PM

Thanks, I have been through all the iterations of this tab and this one is most certainly the best. Nice job!

guest
You may want to rate the tab now too:
select rating
Wanna post a correction for this tab? Suggest correction