Oops, an error
Loading. Please wait.
We have an official My Kind Of Woman tab made by UG professional guitarists. Check out the tab »
×

My Kind Of Woman tab

version 7
version 7

Whole song

Interactive

550 views 27 this week
no commentswrite comment
1 2 3 4 5
2 more votes to show rating
add to favorites
×
Save as Personal and add changes to this tab that will be seen only by you. Learn more ›
×
You can save this tab as Personal to edit and correct it or add notes. All changes will be seen only by you. Learn more »
launch autoscroll
font size
0
reset
how to read this tab
guitar tuner
edit
Autoscroll
slow
fast
+/-
esc
set tempo
stop
About this tab version
Added some ghost notes for a delay effect. Added more strums for a fuller sound. Was this info helpful? Yes No
Capo on 2nd fret. Notes are as they would be on guitar without a capo rather than relative to the capo. 
Strum over the chords slowly to emphasize each individual note. 
If looking for true authenticity, tune up a quarter step.

  [A]
e|-2--------------|
B|-2--------------|
G|-2--------------|
D|-4--------------| Let ring
A|-4--------------|
E|-2--------------|
    
[Intro]
e|--12----10----9---9---------9---9-----------9---9----------9----7---5---5-------5--5---------0~--0-------|
B|---9----9-----10--------10--10----------10--10---------10--10---9---5--------5--5--------5---0~------0---|
G|--10----10----11----11------11------11------11------11-----11---9---6-----6-----6-----6------0~----0-----|x3
D|---------------------------------------------------------------------------------------------------------|
A|---------------------------------------------------------------------------------------------------------|
E|---------------------------------------------------------------------------------------------------------|
    
e|--12----10----9-(9)---------9-(9)-----------9-(9)----------9----7---5-(5)-------5-(5)--------0~------0-----|
B|---9----9-----10--------10--10----------10--10---------10--10---9---5--------5--5--------5---0~----0---0---|
G|--10----9-----11----11------11------11------11------11-----11---9---6-----6-----6-----6------0~--0-------0-|
D|-----------------------------------------------------------------------------------------------------------|
A|-----------------------------------------------------------------------------------------------------------|
E|-----------------------------------------------------------------------------------------------------------|

[Chorus]
e|-9-----------9------------9------------12-----12-----9--------------9-------------9------------10----10--|
B|-10------10--10-------10--10------10---10-----10-----10---------10--10--------10--10-------10--10----10--|
G|-9----9------9-----9------9----9-------9------9------11-----11------11----11------11---11------11----11--|x4
D|---------------------------------------------------------------------------------------------------------| 
A|---------------------------------------------------------------------------------------------------------|
E|---------------------------------------------------------------------------------------------------------|

  [A]
e|-2--------------|
B|-2--------------|
G|-2--------------|
D|-4--------------| Let ring
A|-4--------------|
E|-2--------------|

[Verse]
e|--12----10----9---9---------9---9-----------9---9----------9----7---5---5-------5--5---------0~--0-------|
B|---9----9-----10--------10--10----------10--10---------10--10---9---5--------5--5--------5---0~------0---|
G|--10----10----11----11------11------11------11------11-----11---9---6-----6-----6-----6------0~----0-----|x3
D|---------------------------------------------------------------------------------------------------------|
A|---------------------------------------------------------------------------------------------------------|
E|---------------------------------------------------------------------------------------------------------|
    
e|--12----10----9-(9)---------9-(9)-----------9-(9)----------9----7---5-(5)-------5-(5)--------0~------0-----|
B|---9----9-----10--------10--10----------10--10---------10--10---9---5--------5--5--------5---0~----0---0---|
G|--10----9-----11----11------11------11------11------11-----11---9---6-----6-----6-----6------0~--0-------0-|
D|-----------------------------------------------------------------------------------------------------------|
A|-----------------------------------------------------------------------------------------------------------|
E|-----------------------------------------------------------------------------------------------------------|

[Chorus 2]
e|-9-----------9------------9------------12-----12-----9--------------9-------------9------------10----10--|
B|-10------10--10-------10--10------10---10-----10-----10---------10--10--------10--10-------10--10----10--|
G|-9----9------9-----9------9----9-------9------9------11-----11------11----11------11---11------11----11--|x4
D|---------------------------------------------------------------------------------------------------------| 
A|---------------------------------------------------------------------------------------------------------|
E|---------------------------------------------------------------------------------------------------------|

  [A]
e|-2--------------|
B|-2--------------|
G|-2--------------|
D|-4--------------| Let ring
A|-4--------------|
E|-2--------------|


************************************

| ~    Vibrato
| (n)  Ghost note

************************************

            
            
Suggest correction
Creating personal tab
Creating personal tab
You can edit any tab online and save it as your Personal.

You can edit, replace or remove any tab part or add personal notes – all changes will be seen only by you.

Personal tabs can be accessed anytime from any device, even offline.
Learn more »
Give kudos to tab author, rate the tab!
1 2 3 4 5
comments
print report bad tab
guest
You may want to rate the tab now too:
select rating
Wanna post a correction for this tab? Suggest correction