Oops, an error
Loading. Please wait.

No Other Heart bass

version 2
version 2

Whole song

  • This one is way more accurate if not completely co... Show more
  • Pretty dang correct if I do say so myself.
883 views 15 this week
no commentswrite comment
1 2 3 4 5
2 more votes to show rating
add to favorites
×
Save as Personal and add changes to this tab that will be seen only by you. Learn more ›
×
You can save this tab as Personal to edit and correct it or add notes. All changes will be seen only by you. Learn more »
launch autoscroll
font size
0
reset
guitar tuner
edit
Autoscroll
slow
fast
+/-
esc
set tempo
stop
Author
Difficulty
About this tab version
This one is way more accurate if not completely correct compared to the other version. Was this info helpful? Yes No
-------------------------------------------------------------------------------
                            NO OTHER HEART - MAC DEMARCO
-------------------------------------------------------------------------------
Tabbed by: Noah Moody
E-mail: Noahmoody1228@gmail.com

Tuning: 1/4 STEP DOWN


[Intro / Verse 1] (0:00-1:01)

G|-7-7-7------------------7-7-7---------------------------9---14-12-11--------------9---14-12-11-----|
D|-------7------------7h9-------7------------7h9-7-7-9h11--------------14--7-7-9h11--------------14--|(X7)
A|---------5---5--7h9-------------5---5--7h9---------------------------------------------------------|
E|---------------------------------------------------------------------------------------------------|

[Chorus] (1:01-1:16)

G|-----------------------------------------------------------------7-7------|
D|-5-5---5-5-5---5-8-8---8-11-11---11-12-12---12-----------9-9---9-----9-9--|
A|-----------------------------------------------9-9-12-12------------------|
E|--------------------------------------------------------------------------|

G|-9-9-----9-9-----11-11-----11-9-7h9-7--|
D|-----9-9-----9-9-------9-9-------------|
A|---------------------------------------|
E|---------------------------------------|

[Verse 2] (1:16-2:02)

G|-7-7-7-------------------|
D|-------7------------7h9--|(X2)
A|---------5---5--7h9------|
E|-------------------------|

G|-7-7-7------------------7-7-7---------------------------9---14-12-11--------------9---14-12-11-----|
D|-------7------------7h9-------7------------7h9-7-7-9h11--------------14--7-7-9h11--------------14--|(X5)
A|---------5---5--7h9-------------5---5--7h9---------------------------------------------------------|
E|---------------------------------------------------------------------------------------------------|

[Chorus] (2:02-2:37)

G|-----------------------------------------------------------------7-7------|
D|-5-5---5-5-5---5-8-8---8-11-11---11-12-12---12-----------9-9---9-----9-9--|
A|-----------------------------------------------9-9-12-12------------------|
E|--------------------------------------------------------------------------|


G|-9-9-----9-9-----11-11-----11-9-7h9-7--|
D|-----9-9-----9-9-------9-9-------------|
A|---------------------------------------|
E|---------------------------------------|

G|-7-7-7------------------7-7-7-------------------|
D|-------7------------7h9-------7------------7h9--|
A|---------5---5--7h9-------------5---5--7h9------|
E|------------------------------------------------|

G|-----------------------------------------------------------------7-7------|
D|-5-5---5-5-5---5-8-8---8-11-11---11-12-12---12-----------9-9---9-----9-9--|
A|-----------------------------------------------9-9-12-12------------------|
E|--------------------------------------------------------------------------|


G|-9-9-----9-9-----11-11-----11-9-7h9-7--|
D|-----9-9-----9-9-------9-9-------------|
A|---------------------------------------|
E|---------------------------------------|

[Outro] (2:38-2:47)

G|-7-7-7-------------------|
D|-------7------------7h9--|(X2)
A|---------5---5--7h9------|
E|-------------------------|

G|-7-7-7---------------7\--|
D|-------7-------7h9-7-----|
A|---------5---5-----------|
E|-------------------------|

************************************

| h   Hammer-on
| \   Slide down

************************************

            
            
Suggest correction
Creating personal tab
Creating personal tab
You can edit any tab online and save it as your Personal.

You can edit, replace or remove any tab part or add personal notes – all changes will be seen only by you.

Personal tabs can be accessed anytime from any device, even offline.
Learn more »
Give kudos to tab author, rate the tab!
1 2 3 4 5
comments
print report bad tab
guest
You may want to rate the tab now too:
select rating
Wanna post a correction for this tab? Suggest correction