Oops, an error
Loading. Please wait.

Sherrill tab

14,924 views 30 this week
1 commentread comment
1 2 3 4 5
x 9
add to favorites
×
Save as Personal and add changes to this tab that will be seen only by you. Learn more ›
×
You can save this tab as Personal to edit and correct it or add notes. All changes will be seen only by you. Learn more »
launch autoscroll
font size
0
reset
how to read this tab
guitar tuner
edit
Autoscroll
slow
fast
+/-
esc
set tempo
stop
Author
Difficulty
Mac DeMarco - Sherrill
                              from his 2012 album '2'

[Intro]
Guitar 1:
e|----6--6----------7----7--9--|
B|----------9---7/9---9--------|
G|-6---------------------------| 
D|-----------------------------|
A|-----------------------------|
E|-----------------------------|(x8)

Weird synthy thing:
This is pretty hard to work out
because it has a bunch of effects on it,
but I think I got the basic progression down:
e|---------------------------------|
B|-14----12--11----9--7------------|
G|-13----11--10----8--6----8--6----| 
D|-11-----9---8----6--4----8--6----|
A|-------------------------6--4----|
E|---------------------------------|(x2)

[Verse]
"Gettin' hard to remember,
gettin' hard to recall,
gettin' laid off and pushed out,
and it ain't my baby's fault, so if you..."
Guitar 1:
e|----7--------11----11-14------9-----11----------------|
B|------7---------12----------------------12-----12-----|
G|-/8------/11--------------/8-----11--------11-----11--| 
D|------------------------------------------------------|
A|------------------------------------------------------|
E|------------------------------------------------------|(x4)

Guitar 2:
e|-------7-----------7-----------5-----------7-----|
B|-------7-----------9-----------5-----------9-----|
G|-------8-----------9-----------6-----------9-----| 
D|-------9-----------9-----------7-----------9-----|
A|-------9-----7--7--7--7--------7-----7--7--7--7--|
E|-7--7--7--7--------------5--5--5--5--------------|(x4)

[Pre-Chorus]
"...go, don't cry"
Guitar 1:
e|----11-------11------11-----9----9--7/9--7----7----|
B|------------------11-----11---11-----------7----7--|
G|-11------11----------------------------------------|
D|---------------------------------------------------|
A|---------------------------------------------------|
E|---------------------------------------------------|

Guitar 2:
e|-6-6--6-6--6-6--6-6---9--9---9--9--7-7--7-7--|
B|-7-7--7-7--7-7--7-7--11-11--11-11--7-7--7-7--|
G|-8-8--8-8--8-8--8-8--11-11--11-11--8-8--8-8--|
D|-8-8--8-8--8-8--8-8--11-11--11-11--9-9--9-9--|
A|-6-6--6-6--6-6--6-6---9--9---9--9--9-9--9-9--|
E|-----------------------------------7-7--7-7--|

"I'll be right there, at your side"
Guitar 1:
e|----16-------16------16-14--16b17--16b17--17-17--17-17--|
B|--------------------------------------------------------|
G|-16------16-------16------------------------------------|
D|--------------------------------------------------------|
A|--------------------------------------------------------|
E|--------------------------------------------------------|

Guitar 2:
e|-4-4--4-4--4-4--4-4--5-5--5-5--5-5--5-5--|
B|-4-4--4-4--4-4--4-4--5-5--5-5--5-5--5-5--|
G|-4-4--4-4--4-4--4-4--6-6--6-6--6-6--6-6--|
D|-6-6--6-6--6-6--6-6--7-7--7-7--7-7--7-7--|
A|-6-6--6-6--6-6--6-6--7-7--7-7--7-7--7-7--|
E|-4-4--4-4--4-4--4-4--5-5--5-5--5-5--5-5--|

[Chorus]
"Sherrill,
Sherrill"
Guitar 1:
e|----6--6----------7----7--9--|
B|----------9---7/9---9--------|
G|-6---------------------------| 
D|-----------------------------|
A|-----------------------------|
E|-----------------------------|(x4)

Weird synthy thing:
This is pretty hard to work out
because it has a bunch of effects on it,
but I think I got the basic progression down:
e|---------------------------------|
B|-14----12--11----9--7------------|
G|-13----11--10----8--6----8--6----|
D|-11-----9---8----6--4----8--6----|
A|-------------------------6--4----|
E|---------------------------------|

[Verse]
"Gettin' laid on the lifeline,
gettin' tired, time for bed,
and there's no use gettin' worked up,
I'll remember all you said, and if you.."
Guitar 1:
e|----7--------11----11-14------9-----11----------------|
B|------7---------12----------------------12-----12-----|
G|-/8------/11--------------/8-----11--------11-----11--| 
D|------------------------------------------------------|
A|------------------------------------------------------|
E|------------------------------------------------------|(x4)

Guitar 2:
e|-------7-----------7-----------5-----------7-----|
B|-------7-----------9-----------5-----------9-----|
G|-------8-----------9-----------6-----------9-----| 
D|-------9-----------9-----------7-----------9-----|
A|-------9-----7--7--7--7--------7-----7--7--7--7--|
E|-7--7--7--7--------------5--5--5--5--------------|(x4)

[Pre-Chorus]
"...go, don't cry"
Guitar 1:
e|----11-------11------11-----9----9--7/9--7----7----|
B|------------------11-----11---11-----------7----7--|
G|-11------11----------------------------------------|
D|---------------------------------------------------|
A|---------------------------------------------------|
E|---------------------------------------------------|

Guitar 2:
e|-6-6--6-6--6-6--6-6---9--9---9--9--7-7--7-7--|
B|-7-7--7-7--7-7--7-7--11-11--11-11--7-7--7-7--|
G|-8-8--8-8--8-8--8-8--11-11--11-11--8-8--8-8--|
D|-8-8--8-8--8-8--8-8--11-11--11-11--9-9--9-9--|
A|-6-6--6-6--6-6--6-6---9--9---9--9--9-9--9-9--|
E|-----------------------------------7-7--7-7--|

"I'll be right there, at your side"
Guitar 1:
e|----16-------16------16-14--16b17--16b17--17-17--17-17--|
B|--------------------------------------------------------|
G|-16------16-------16------------------------------------|
D|--------------------------------------------------------|
A|--------------------------------------------------------|
E|--------------------------------------------------------|

Guitar 2:
e|-4-4--4-4--4-4--4-4--5-5--5-5--5-5--5-5--|
B|-4-4--4-4--4-4--4-4--5-5--5-5--5-5--5-5--|
G|-4-4--4-4--4-4--4-4--6-6--6-6--6-6--6-6--|
D|-6-6--6-6--6-6--6-6--7-7--7-7--7-7--7-7--|
A|-6-6--6-6--6-6--6-6--7-7--7-7--7-7--7-7--|
E|-4-4--4-4--4-4--4-4--5-5--5-5--5-5--5-5--|

[Chorus]
"Sherrill,
Sherrill,
Sherrill,
Sherrill"
Guitar 1:
e|----6--6----------7----7--9--|
B|----------9---7/9---9--------|
G|-6---------------------------| 
D|-----------------------------|
A|-----------------------------|
E|-----------------------------|(x8)

Weird synthy thing:
This is pretty hard to work out
because it has a bunch of effects on it,
but I think I got the basic progression down:
e|---------------------------------|
B|-14----12--11----9--7------------|
G|-13----11--10----8--6----8--6----| 
D|-11-----9---8----6--4----8--6----|
A|-------------------------6--4----|
E|---------------------------------|(x2)

End on:
Guitar 1:
e|-11----|
B|-11----|
G|--8----|
D|-------|
A|-------|
E|-------|



************************************

| /  Slide up
| b  Bend

************************************

            
            
Suggest correction
Creating personal tab
Creating personal tab
You can edit any tab online and save it as your Personal.

You can edit, replace or remove any tab part or add personal notes – all changes will be seen only by you.

Personal tabs can be accessed anytime from any device, even offline.
Learn more »
comments
print report bad tab
1 comment total.
0 reply
morallita6659 10 Mar 03, 2017 08:00 PM

damn you are just tabbing out all the good songs, this is a really good song.

guest
You may want to rate the tab now too:
select rating
Wanna post a correction for this tab? Suggest correction