Oops, an error
Loading. Please wait.

Shes Really All I Need tab

version 1
version 1

Whole song

20,410 views 78 this week
7 commentsread comments
1 2 3 4 5
x 13
add to favorites
×
Save as Personal and add changes to this tab that will be seen only by you. Learn more ›
×
You can save this tab as Personal to edit and correct it or add notes. All changes will be seen only by you. Learn more »
launch autoscroll
font size
0
reset
how to read this tab
guitar tuner
edit
Autoscroll
slow
fast
+/-
esc
set tempo
stop
Author
Difficulty
-------------------------------------------------------------------------------
                             She's Really All I Need - Mac Demarco
-------------------------------------------------------------------------------

Chords and Tab

Tabbed by: fid3l



CHORDS


[Verse]

Ab        Eb     Db    Eb
Up out of bed at 3 
    Cm     Fm       Db Eb
and i feel like i'm dying 
    Ab       Eb            Db      Eb  
But if she's there next to me, 
     Cm         Fm     Db  Eb
then there's no use in crying 
      Ab           Eb    Db      Eb
Cause she's really all i need, 
     Cm      Fm       Db  Eb
it's true my heart is flying
Ab          Eb     Db      Eb
Life can be such a breeze, 
   Cm      Fm        Db      Eb
as long as it's just her and me 


[Chorus]

Bbm           Eb        Bbm          Eb        Ab      Fm      Eb
Dont bring me down man, wearing that frown man now 

Bbm              Eb        Bbm       Eb       Ab      Fm      Eb
It's trials from my brain, step into my frame now 


[Verse]

Ab           Eb   Db       Eb
I smell your arts degree, 
     Cm      Fm     Db Eb
it's telling me i'm lazy    
    Ab         Eb    Db       Eb
I'm working so i can eat, 
   Cm        Fm   Db        Eb
so keep that shit away from me 
      Ab           Eb    Db      Eb
Cause she's really all i need, 
    Cm Fm        Db Eb
and up until i'm dying
Ab          Eb     Db      Eb
Life can be such a breeze, 
   Cm      Fm        Db      Eb
as long as it's just her and me 


[Chorus]

Bbm           Eb        Bbm          Eb        Ab      Fm      Eb
Dont bring me down man, wearing that frown man now 

Bbm              Eb        Bbm       Eb       Ab      Fm      Eb
It's trials from my brain, step into my frame now 


[Solo]

Bbm  Fm  Ab  Eb 



TAB


[Verse]

e|--------------------------------8---------------9--------------------------|
B|-----8-------6-------4------8-------6-------9-----------4------------------|
G|-8-------6-------5--------------------8-------------6----------------------|
D|---------------------------------------------------------------------------|
A|---------------------------------------------------------------------------|
E|---------------------------------------------------------------------------|


[Chorus]

e|---------------------------------------------------------------------------|
B|----4-----6--4-----4-----6--4----------4-----4-----------------------------|
G|-6-----6--------6-----6--------5----5-----5--------------------------------|
D|---------------------------------------------------------------------------|
A|---------------------------------------------------------------------------|
E|---------------------------------------------------------------------------|


[Solo]

e|--------------------------------------------------------4------------------|
B|-6h8p6\4-6------4-4---4h6p4---4------6h8p6\4-6------6b7---4---4------------|
G|------------4/5-----5-------5-------------------4/5---------5--------------|
D|---------------------------------------------------------------------------|
A|---------------------------------------------------------------------------|
E|---------------------------------------------------------------------------|

e|---------------------------------------------------------------------------|
B|-6h8p6\4-6------4-4------4h6p4---------------------------------------------|
G|------------4/5------4/5 ------5-3\1h3p1~----------------------------------|
D|---------------------------------------------------------------------------|
A|---------------------------------------------------------------------------|
E|---------------------------------------------------------------------------|

e|---------------------------------------------------------------------------|
B|-6h8p6\4-6------4-4--6b7br6p4----------------------------------------------|
G|------------4/5---------------5-0------------------------------------------|
D|---------------------------------------------------------------------------|
A|---------------------------------------------------------------------------|
E|---------------------------------------------------------------------------|




************************************

| /   slide up
| \   slide down
| h   hammer-on
| p   pull-off
| ~   vibrato
| +   harmonic
| x   Mute note
| b   Bend
| pb  Pre-bend
| br  Bend release
| pbr Pre-bend release
| brb Bend release bend

************************************

            
            
Suggest correction
Creating personal tab
Creating personal tab
You can edit any tab online and save it as your Personal.

You can edit, replace or remove any tab part or add personal notes – all changes will be seen only by you.

Personal tabs can be accessed anytime from any device, even offline.
Learn more »
comments
print report bad tab
7 comments total. Showing first comments. show 1 bad comment
+4 reply
rasgibson 350 Jul 02, 2014 01:59 AM

If you plays with a capo on the first fret the chords become much easier to understand. Then you dont need to deal with all the flats. The chords like this are G D C D Bm Em C D for the verse and Am D Am D G Em D for the chorus.

-2 reply
snso 10 Aug 09, 2015 10:17 PM

lead guitar in the chorus is a tad wrong

Chorus

e|---------------------------------------------------------------------------|
B|----4-----6--4-----4-----6--4----------4----4-----------------------------|
G|-6-----6--------6-----6-------3s5-3-5---5-----5-------------------------|
D|---------------------------------------------------------------------------|
A|---------------------------------------------------------------------------|
E|---------------------------------------------------------------------------|

guest
You may want to rate the tab now too:
select rating
Wanna post a correction for this tab? Suggest correction