Oops, an error
Loading. Please wait.

Still Beating tab

version 2
version 2

Whole song

  • Lead Guitar Part // Easier Fingerings for verse an... Show more
5,599 views 84 this week
1 commentread comment
1 2 3 4 5
x 8
add to favorites
×
Save as Personal and add changes to this tab that will be seen only by you. Learn more ›
×
You can save this tab as Personal to edit and correct it or add notes. All changes will be seen only by you. Learn more »
launch autoscroll
font size
0
reset
how to read this tab
guitar tuner
edit
Autoscroll
slow
fast
+/-
esc
set tempo
stop
Author
Difficulty
About this tab version
Lead Guitar Part // Easier Fingerings for verse and chorus, Wrote the fills how i heard them, different than other versions. Was this info helpful? Yes No
My interpretation of what I hear in this song. A bit different than the others. It sounds right to me.

Enjoy.


Intro]
e|--------------------------9------------------------------------------------------------|
B|-------9--------11-----------12-11\----------------------------------------------------|
G|-----8--------8---------8----11-11\---------11-11----11-/15---------11-11----11--------|
D|8/11-----8/11------8/11------12-11\---11/13-------13----------11/13-------13----13-11\-|
A|---------------------------------------------------------------------------------------|
E|---------------------------------------------------------------------------------------|

e|--------------------------9------------------------------------------------------------|
B|-------9--------11-----------12-11\----------------------------------------------------|
G|-----8--------8---------8----11-11\---------11-11----11-/15---------11-11----11-13-13\-|
D|8/11-----8/11------8/11------12-11\---11/13-------13----------11/13-------13-----------|
A|---------------------------------------------------------------------------------------|
E|---------------------------------------------------------------------------------------| 

[Verse 1]
e|--------------------------9------------------------------------------------------------|
B|-------9--------11-----------12--11\---------------------------------------------------|
G|-----8--------8---------8----11--11\---------------------------------------------------| x2
D|8/11-----8/11------8/11------12--11\---------------------------------------------------|
A|---------------------------------------------------------------------------------------|
E|---------------------------------------------------------------------------------------|

[Chorus]
e|--------------------------9------------------------------------------------------------|
B|-------9--------11-----------12--11\---------------------------------------------------|
G|-----8--------8---------8----11--11\---------------------------------------------------| 
D|8/11-----8/11------8/11------12--11\---------------------------------------------------|
A|---------------------------------------------------------------------------------------|
E|---------------------------------------------------------------------------------------|

e|---------------------------------------------------------------------------------------|
B|-------9--------11-9-------------------------------------------------------------------|
G|-----8--------8--------10h11p10h11--10-------------------------------------------------| 
D|8/11-----8/11---------------------------11h13-11/20------------------------------------|
A|---------------------------------------------------------------------------------------|
E|---------------------------------------------------------------------------------------|

[Bridge]
e|--------------------------9------------------------------------------------------------|
B|-------9--------11-----------12-11\----------------------------------------------------|
G|-----8--------8---------8----11-11\---------11-11----11-/15---------11-11----11--------|
D|8/11-----8/11------8/11------12-11\---11/13-------13----------11/13-------13----13-11\-|
A|---------------------------------------------------------------------------------------|
E|---------------------------------------------------------------------------------------|

e|--------------------------9------------------------------------------------------------|
B|-------9--------11-----------12-11\----------------------------------------------------|
G|-----8--------8---------8----11-11\---------11-11----11-/15---------11-11----11-11h13\-|
D|8/11-----8/11------8/11------12-11\---11/13-------13----------11/13-------13-----------|
A|---------------------------------------------------------------------------------------|
E|---------------------------------------------------------------------------------------| 

[Verse 2]
e|--------------------------9------------------------------------------------------------|
B|-------9--------11-----------12-11\----------------------------------------------------|
G|-----8--------8---------8----11-11\----------------------------------------------------| x4
D|8/11-----8/11------8/11------12-11\----------------------------------------------------|
A|---------------------------------------------------------------------------------------|
E|---------------------------------------------------------------------------------------|

[Chorus//End]
e|--------------------------9------------------------------------------------------------|
B|-------9--------11-----------12-11\----------------------------------------------------|
G|-----8--------8---------8----11-11\----------------------------------------------------| 
D|8/11-----8/11------8/11------12-11\----------------------------------------------------|
A|---------------------------------------------------------------------------------------|
E|---------------------------------------------------------------------------------------|

e|---------------------------------------------------------------------------------------|
B|-------9--------11-9-------------------------------------------------------------------|
G|-----8--------8------------------------------------------------------------------------| 
D|8/11-----8/11--------------------------------------------------------------------------|
A|---------------------------------------------------------------------------------------|
E|---------------------------------------------------------------------------------------|

************************************
| h  Hammer On
| p  Pull Off
| \  Slide down
| /  Slide up
************************************
 Suggest corrections if you hear it different, thanks.

            
            
Suggest correction
Creating personal tab
Creating personal tab
You can edit any tab online and save it as your Personal.

You can edit, replace or remove any tab part or add personal notes – all changes will be seen only by you.

Personal tabs can be accessed anytime from any device, even offline.
Learn more »
comments
print report bad tab
1 comment total.
+1 reply
pepproniplayboy 10 Apr 19, 2017 08:30 PM

Chords (w/ capo 4): D6 A7 Em G

guest
You may want to rate the tab now too:
select rating
Wanna post a correction for this tab? Suggest correction