Oops, an error
Loading. Please wait.

Isabel tab

version 4
version 4

Whole song

87 views 6 this week
no commentswrite comment
1 2 3 4 5
3 more votes to show rating
add to favorites
×
Save as Personal and add changes to this tab that will be seen only by you. Learn more ›
×
You can save this tab as Personal to edit and correct it or add notes. All changes will be seen only by you. Learn more »
launch autoscroll
font size
0
reset
how to read this tab
guitar tuner
edit
Autoscroll
slow
fast
+/-
esc
set tempo
stop
HOLA AMIGOS LES TRAIGO LA CORRECCION DEL INTRO
DE ESTA HERMOSA CANCIÓN Y AY LOS DEJO Q LO DISFRUTEN.

g.- golpe de martillo
/.- arrastre

INTRO:


TAB|-10g7---7-7---7-7---7-7---7-10-12-|/TAB
TAB|------7-----7-----7-----7---------|/TAB
TAB|------7-----7-----7-----7---------|/TAB
TAB|-9------9-----9-----9-------------|/TAB
TAB|----------------------------------|/TAB
TAB|----------------------------------|/TAB


TAB|-10g7---7-7---7-7---7-7---9-7----7-|/TAB
TAB|------7-----7-----7-----7-----10-7-|/TAB
TAB|------7-----7-----7-----7--------7-|/TAB
TAB|-9------9-----9-----9------------9-|/TAB
TAB|-----------------------------------|/TAB
TAB|-----------------------------------|/TAB

se repite la parte de arriba

punteo inicial

TAB|--------------------------2-----2-5g7g5---7/5-5---7/10/7-7/5---|/TAB
TAB|-------2-3---2-3-5-2--3-5---3-5---------7-7---7-7-7/10/7-7/5-7-|/TAB
TAB|-4-3-4-----4----------------------6-----7-------7------------7-|/TAB
TAB|---------------------------------------------------------------|/TAB
TAB|---------------------------------------------------------------|/TAB
TAB|---------------------------------------------------------------|/TAB

bordon

TAB|-------------------------------------|/TAB  ojo: en la parte en q se ve
TAB|-------------------------------------|/TAB      5g7g5 se toca el quito
TAB|---------------------------------3/4-|/TAB      traste de inmediato se da
TAB|---4-2---2---2-4-----4-2---2---4-----|/TAB      un golge de martillo en el
TAB|-2-----5---5-----2-2-----5---5-------|/TAB      7mo traste y se retira el
TAB|-------------------------------------|/TAB      dedo de inmediato(1tiempo)


(PARTE I)
           [ch]Bm[/ch]                  [ch]A[/ch]
Yo ande por ti cual mendigo de amor
                                1)-------0---------0-----
                                2)-2---2---2-----2---2---
                                3)---2----------2------2-
                                4)-----------------------
                                5)-0---------0-----------
                                6)-----------------------

      [ch]Bm[/ch]            [ch]F#m[/ch]
y te busque en mi soledad
                     1)-222-222-222-222-222-222-222--
                     2)----------------2-------------
                     3)------------2-------2--------- (Tremolo)
                     4)--------4---------------4-----
                     5)----4-----------------------4-
                     6)------------------------------


      [ch]D               [ch]A[/ch]                  SIm[/ch]
para  vivir            si.........preso de ti
   1)-------2-----2 1)-------0-----0-     1)-------------------
   2)-3---3-----3-- 2)-2---2-----2---     2)-------------------
   3)---2-----2---- 3)---2-----2-----     3)------------------- (*)
   4)-0------------ 4)-0-------------     4)---4-2---2---2-4---
   5)-------------- 5)---------------     5)-2-----5---5-----2-
   6)-------------- 6)---------------     6)-------------------

           [ch]Bm[/ch]            [ch]A[/ch]
No pienso amor perderte jamás
                          1)-------0---------0-----
                          2)-2---2---2-----2---2---
                          3)---2----------2------2-
                          4)-----------------------
                          5)-0---------0-----------
                          6)-----------------------

     [ch]Bm[/ch]                [ch]F#m[/ch]
no dejes que me quede sin ti
                          1)-222-222-222-222-222-222-222--
                          2)----------------2-------------
                          3)------------2-------2---------
                          4)--------4---------------4-----
                          5)----4-----------------------4-
                          6)------------------------------

     [ch]D                     LA[/ch]
no volveré                  no.........
         1)-------2-----2 1)-------0-----0-
         2)-3---3-----3-- 2)-2---2-----2---
         3)---2-----2---- 3)---2-----2-----
         4)-0------------ 4)-0-------------
         5)-------------- 5)---------------
         6)-------------- 6)---------------

            [ch]Bm[/ch]
a vivir otra vez
              1)-------------------------
              2)-------------------------
              3)------------------------- (**)
              4)---4-2---2---2-4-4/9-9-9-
              5)-2-----5---5-------------
              6)-------------------------


CORO:


    [ch]D[/ch]
De tanto que te busque
   1)-------2-----2--
   2)-3---3-----3----
   3)---2-----2------  (x2)
   4)-0--------------
   5)----------------
   6)----------------

    [ch]D[/ch]
de tanto que te llore
   1)-------2-----2--
   2)-3---3-----3----
   3)---2-----2------  (x2)
   4)-0--------------
   5)----------------
   6)----------------


       [ch]Bm[/ch]
y te encontre
   1)----------------
   2)-----3-----3----
   3)---4---4-----4--  (x2)
   4)-4-------4------
   5)----------------
   6)----------------

   [ch]D[/ch]
viviendo en mi soledad
   1)-------2-----2--
   2)-3---3-----3----
   3)---2-----2------  (x2)
   4)-0--------------
   5)----------------
   6)----------------

   [ch]D[/ch]
bebiendo llanto de amor
   1)-------2-----2--
   2)-3---3-----3----
   3)---2-----2------  (x2)
   4)-0--------------
   5)----------------
   6)----------------

                 [ch]Bm[/ch]
por encontrarte a ti
                  1)----------------------
                  2)-------2-3-2-3-5-5/7--
                  3)-4-2-4----------------
                  4)----------------------
                  5)----------------------
                  6)----------------------

      [ch]G[/ch]                            [ch]D[/ch]
Me revele                       mi destino
      1)-------3-----3--           1)-------2-----2--
      2)-----3-----3----           2)-----3-----3----
      3)---4-----4------  (x2)     3)---2-----2------ (x2)
      4)-5--------------           4)-0--------------
      5)----------------           5)----------------
      6)----------------           6)----------------

      [ch]A[/ch]
buscandote
   1)-------0-----0--
   2)-----2-----2----
   3)---2-----2------  (x2)
   4)-2--------------
   5)----------------
   6)----------------


         [ch]Bm[/ch]
para ser felíz
         1)----------------------
         2)-------2-3-2-3-5-5/7--
         3)-4-2-4----------------
         4)----------------------
         5)----------------------
         6)----------------------


           [ch]G[/ch]                           [ch]D[/ch]
Hoy te encontre                   en mi camino
             1)-------3-----3--           1)-------2-----2--
             2)-----3-----3----           2)-----3-----3----
             3)---4-----4------  (x2)     3)---2-----2------ (x2)
             4)-5--------------           4)-0--------------
             5)----------------           5)----------------
             6)----------------           6)----------------

         [ch]A[/ch]
no puedo ya
         1)-------0-----0--
         2)-----2-----2----
         3)---2-----2------
         4)-2--------------
         5)----------------
         6)----------------

          [ch]Bm[/ch]
vivir sin ti... Fin


1)--------------------------------------------------------------
2)-----3-5/7-7-7------3-2------------3-4/5-5-5-------2-0--------
3)-2-4------------2-4-----4-2----2-4-------------2-4-----2/4-4--  (x2)
4)--------------------------------------------------------------
5)--------------------------------------------------------------
6)--------------------------------------------------------------

REPETIR (*) Y (**)

REPETIR (PARTE I)

Y PARA EL FINAL (***)

            
            
Suggest correction
Creating personal tab
Creating personal tab
You can edit any tab online and save it as your Personal.

You can edit, replace or remove any tab part or add personal notes – all changes will be seen only by you.

Personal tabs can be accessed anytime from any device, even offline.
Learn more »
Give kudos to tab author, rate the tab!
1 2 3 4 5
comments
print report bad tab
guest
Wanna post a correction for this tab? Suggest correction