Oops, an error
Loading. Please wait.

Farewell To Arms intro tab

version 1
version 1

Intro

Whole song

Interactive

5,667 views 6 this week
3 commentsread comments
1 2 3 4 5
x 3
add to favorites
×
Save as Personal and add changes to this tab that will be seen only by you. Learn more ›
×
You can save this tab as Personal to edit and correct it or add notes. All changes will be seen only by you. Learn more »
launch autoscroll
font size
0
reset
how to read this tab
guitar tuner
edit
Autoscroll
slow
fast
+/-
esc
set tempo
stop
Author
Difficulty
Tunning: 6:B  5:F# 4:B  3:E  2:C# 1:G#

clean
1|------------------------------|          1|------------------|
2|------------------------------|          2|------------------|
3|---------14-----10-----9----10| X3 then  3|---------12-------|
4|------0-----0-------0----0----|          4|------------------|
5|------------------------------|          5|-----12-----------|
6|------------------------------|          6|------------------|


1|----------------------------------------------------------------|
2|----------------------------------------------------------------|
3|----------------------------------------------------------------|cont.
4|--------0-----0-------0-------0------0------0-----0-----0-----0-|
5|----------0-----0---------------1------1------------0-----0-----|
6|-----0------0-----0--------0------0------0-----0------0-----0---|


1|----------------------------------------------------------------|
2|----------------------------------------------------------------|
3|----------------------------------------------------------------| cont.
4|--------0---------0------0-----0------0-----0-----0------0------|
5|------0---0-----0---0------0-----0------------1-----1-----------|
6|----6---------5--------0-----0-----0-----0------0-----0---------|


1|----------------------------------------------------------------|
2|----------------------------------------------------------------|
3|----------------------------------------------------------------|
4|------0-----0------0------0--------0-------0-------0------------| x2
5|--------0-----0---------0---0----0---0---0---0---0---0----------|
6|--0-------0-----0-----6--------5-------3-------2----------------|


im like 98% certain about this tab i have more tabbed but haven't submitted yet will soon though

            
            
Suggest correction
Creating personal tab
Creating personal tab
You can edit any tab online and save it as your Personal.

You can edit, replace or remove any tab part or add personal notes – all changes will be seen only by you.

Personal tabs can be accessed anytime from any device, even offline.
Learn more »
Give kudos to tab author, rate the tab!
1 2 3 4 5
comments
print report bad tab
3 comments total.
0 reply
mesaboogieman 90 Apr 05, 2007 11:56 PM

my favourite song on the new album, thanks for getting me started ;) i might submit the rest if i can work it out

+1 reply
metaldrive 134 Dec 24, 2007 04:09 AM

Thats way wrong it even sounds wrong

sorry but its just bad

0 reply
bd_alterbridge 20 Apr 11, 2008 08:21 AM

Yeah the only bit that's remotley right is the last bit of the intro - 12 on the 5th and on the 3rd.
But your main riff part of this tab is not bad dude.
Keep it up.

guest
You may want to rate the tab now too:
select rating
Wanna post a correction for this tab? Suggest correction