Oops, an error
Loading. Please wait.

Killers And Kings tab

version 2
version 2

Whole song

Interactive

588 views 1 this week
12 commentsread comments
1 2 3 4 5
x 3
add to favorites
×
Save as Personal and add changes to this tab that will be seen only by you. Learn more ›
×
You can save this tab as Personal to edit and correct it or add notes. All changes will be seen only by you. Learn more »
launch autoscroll
font size
0
reset
how to read this tab
guitar tuner
edit
Autoscroll
slow
fast
+/-
esc
set tempo
stop
MACHINE HEAD

KILLERS AND KINGS


B-F#-B-E-G#-C#


TABBED BY andherembrace







--------------------------------------------------------------------------|
--------------------------------------------------------------------------|
----------------------------------------------^---^------------^----^-----|
---------------------------------------------6-0-3-5---------13-0-10-12---|
----1---------------------------6-----------------------------------------|
-00-1---0-0-0-0-0-0-0-0-0-0-0-0-6\--0-0-0-0---------0-0-0-0---------------|
 **     * * * * * * * * * * * *     * * * *         * * * *


--------------------------------------------------------------|
--------------------------------------------------------------|
----------------------------------------------^-----------^---|
---------------------------------------------0-1-1-1-1-1-1-0--|
-------------------------6-3--^-----------^-------------------|
-0-0-0-0-0-0-0-0-0-0-0-0-6-3-0-1-1-1-1-1-1-0------------------|
 * * * * * * * * * * * *         * * * *         * * * * 


--------------------------------------------------------------------|
----------------------------------------------------------^----^----|
---------------------------------------^----^-----------13-0-10-12--|
-------------------------------------13-0-10-12---------------------|
-------------------------6------------------------------------------|
-0-0-0-0-0-0-0-0-0-0-0-0-6\--0-0-0-0------------0-0-0-0-------------|
 * * * * * * * * * * * *     * * * *            * * * * 



-------------------------------------------------------------|
--------------------------------------------4-3-1-3-4-3-1-3--|
------------------------------^------------------------------|
-----------------------------0-1-1-1-1-1-1-0-----------------|
------------------------6-3----------------------------------|
0-0-0-0-0-0-0-0-0-0-0-0-6-3----------------------------------|
* * * * * * * * * * * *          * * * * * * 





0:14


------------------------------------------------------------------|
------------------------------------------------------------------|
--------------------------------------^---^------------^----^-----|
-------------------------------------6-0-3-5---------13-0-10-12---|
-------------------------6----------------------------------------|
-0-0-0-0-0-0-0-0-0-0-0-0-6\--0-0-0-0---------0-0-0-0--------------|
 * * * * * * * * * * * *     * * * *         * * * *


--------------------------------------------------------------|
--------------------------------------------------------------|
----------------------------------------------^-----------^---|
---------------------------------------------0-1-1-1-1-1-1-0--|
-------------------------6-3--^-----------^-------------------|
-0-0-0-0-0-0-0-0-0-0-0-0-6-3-0-1-1-1-1-1-1-0------------------|
 * * * * * * * * * * * *         * * * *         * * * * 


--------------------------------------------------------------------|
----------------------------------------------------------^----^----|
---------------------------------------^----^-----------13-0-10-12--|
-------------------------------------13-0-10-12---------------------|
-------------------------6------------------------------------------|
-0-0-0-0-0-0-0-0-0-0-0-0-6\--0-0-0-0------------0-0-0-0-------------|
 * * * * * * * * * * * *     * * * *            * * * * 



-------------------------------------------------------------|
--------------------------------------------4-3-1-3-4-3-1-3--|
-----------------------------^-------------------------------|
----------------------------0-1-1-1-1-1-1-1------------------|
------------------------6-3----------------------------------|
0-0-0-0-0-0-0-0-0-0-0-0-6-3----------------------------------|
* * * * * * * * * * * *         * * * * * * 


--^-------^-------^-------^------|
-4-3-1-3-4-3-1-3-4-3-1-3-4-3-----|
-----------------------------X-X-|
-----------------------------X-X-|
-----------------------------X-X-|
-----------------------------X-X-|




0:30
                   L
-----------------------------------------------------|
-4444444444444444------------------------------------|
-XXXXXXXXXXXXXXXX------------------------------------|
-1111111111111111---3-1-0-3-1-0-3-1-0-3-1-0-3-1-0-0--|
-----------------------------------------------------|
-----------------------------------------------------|
                    * * * * * * * * * * * * * * * * 
                   L
---------------------------------------------------------|
-4444444444444444----------------------------------------|
-XXXXXXXXXXXXXXXX-----------------------------^-----^----|
-1111111111111111---3-1-0-5-3-0-6-5-0-8-6-0-13-12-10-12--|
---------------------------------------------------------|
---------------------------------------------------------|
                    * * * * * * * * * * * * 



--------------------------------------|
-666666666666-8888-44444444-----------|
-XXXXXXXXXXXX-XXXX-XXXXXXXX-555555----|
-333333333333-5555-11111111-XXXXXX-00-|
----------------------------333333----|
--------------------------------------|



                   L
-----------------------------------------------------|
-4444444444444444------------------------------------|
-XXXXXXXXXXXXXXXX------------------------------------|
-1111111111111111---3-1-0-3-1-0-3-1-0-3-1-0-3-1-0-0--|
-----------------------------------------------------|
-----------------------------------------------------|
                    * * * * * * * * * * * * * * * * 
                   L
--------------------------------------------------------|
-4444444444444444---------------------------------------|
-XXXXXXXXXXXXXXXX-----------------------------^----^----|
-1111111111111111---3-1-0-5-3-0-6-5-0-8-6-0-13-0-10-12--|
--------------------------------------------------------|
--------------------------------------------------------|
                    * * * * * * * * * * * * 



--------------------------------------|
-666666666666-8888-44444444-----------|
-XXXXXXXXXXXX-XXXX-XXXXXXXX-5---------|
-333333333333-5555-11111111-X---------|
----------------------------3--\------|
--------------------------------------|





0:50

---------------------------------------------------------------------------|
---------------------------------------------------------------------------|
---------------------------------------------------------------------------|
------------------------5--------5---------------------------5--------5----|
-000--000--000-6---000----3-000----1--000--000--000-6---000----3-000----1--|
-000--000--000-6-\-000----3-000----1--000--000--000-6-\-000----3-000----1--|
 ***  ***  ***     ***  H   ***  H    ***  ***  ***     ***  H   ***  H




--------------------------------------|
-666666666666-8888-44444444-----------|
-XXXXXXXXXXXX-XXXX-XXXXXXXX-5---------|
-333333333333-5555-11111111-X---------|
----------------------------3--/------|
--------------------------------------|



1:00

------------------------------------------------------------------|
------------------------------------------------------------------|
--------------------------------------^---^------------^----^-----|
-------------------------------------6-0-3-5---------13-0-10-12---|
-------------------------6----------------------------------------|
-0-0-0-0-0-0-0-0-0-0-0-0-6\--0-0-0-0---------0-0-0-0--------------|
 * * * * * * * * * * * *     * * * *         * * * *


--------------------------------------------------------------|
--------------------------------------------------------------|
----------------------------------------------^-----------^---|
---------------------------------------------0-1-1-1-1-1-1-0--|
-------------------------6-3--^-----------^-------------------|
-0-0-0-0-0-0-0-0-0-0-0-0-6-3-0-1-1-1-1-1-1-0------------------|
 * * * * * * * * * * * *         * * * *         * * * * 


--------------------------------------------------------------------|
----------------------------------------------------------^----^----|
---------------------------------------^----^-----------13-0-10-12--|
-------------------------------------13-0-10-12---------------------|
-------------------------6------------------------------------------|
-0-0-0-0-0-0-0-0-0-0-0-0-6\--0-0-0-0------------0-0-0-0-------------|
 * * * * * * * * * * * *     * * * *            * * * * 



-------------------------------------------------------------|
--------------------------------------------4-3-1-3-4-3-1-3--|
-----------------------------^-------------------------------|
----------------------------0-1-1-1-1-1-1-1------------------|
------------------------6-3----------------------------------|
0-0-0-0-0-0-0-0-0-0-0-0-6-3----------------------------------|
* * * * * * * * * * * *         * * * * * *


-----------------------------------------------------------------|
-4-3-1-3-4-3-1-3-4-3-1-3-4-3-1-3-4-3-1-3-4-3-1-3-4-3-1-3-4-3-1-3-|
-----------------------------------------------------------------|
-----------------------------------------------------------------|
-----------------------------------------------------------------|
-----------------------------------------------------------------|




1:18
                   L
-----------------------------------------------------|
-4444444444444444------------------------------------|
-XXXXXXXXXXXXXXXX------------------------------------|
-1111111111111111---3-1-0-3-1-0-3-1-0-3-1-0-3-1-0-0--|
-----------------------------------------------------|
-----------------------------------------------------|
                    * * * * * * * * * * * * * * * * 
                   L
--------------------------------------------------------|
-4444444444444444---------------------------------------|
-XXXXXXXXXXXXXXXX-----------------------------^----^----|
-1111111111111111---3-1-0-5-3-0-6-5-0-8-6-0-13-0-10-12--|
--------------------------------------------------------|
--------------------------------------------------------|
                    * * * * * * * * * * * * 



--------------------------------------|
-666666666666-8888-44444444-----------|
-XXXXXXXXXXXX-XXXX-XXXXXXXX-555555----|
-333333333333-5555-11111111-XXXXXX-00-|
----------------------------333333----|
--------------------------------------|



                   L
-----------------------------------------------------|
-4444444444444444------------------------------------|
-XXXXXXXXXXXXXXXX------------------------------------|
-1111111111111111---3-1-0-3-1-0-3-1-0-3-1-0-3-1-0-0--|
-----------------------------------------------------|
-----------------------------------------------------|
                    * * * * * * * * * * * * * * * * 
                   L
--------------------------------------------------------|
-4444444444444444---------------------------------------|
-XXXXXXXXXXXXXXXX-----------------------------^-----^---|
-1111111111111111---3-1-0-5-3-0-6-5-0-8-6-0-13-12-10-12-|
--------------------------------------------------------|
--------------------------------------------------------|
                    * * * * * * * * * * * * 


--------------------------------------|
-666666666666-8888-44444444-----------|
-XXXXXXXXXXXX-XXXX-XXXXXXXX-5---------|
-333333333333-5555-11111111-X---------|
----------------------------3--\------|
--------------------------------------|




1:38


---------------------------------------------------------------------------|
---------------------------------------------------------------------------|
---------------------------------------------------------------------------|
------------------------5--------5---------------------------5--------5----|
-000--000--000-6---000----3-000----1--000--000--000-6---000----3-000----1--|
-000--000--000-6-\-000----3-000----1--000--000--000-6-\-000----3-000----1--|
 ***  ***  ***     ***  H   ***  H    ***  ***  ***     ***  H   ***  H


--------------------------------------|
-666666666666-8888-44444444-----------|
-XXXXXXXXXXXX-XXXX-XXXXXXXX-5---------|
-333333333333-5555-11111111-X---------|
----------------------------3--/------|
--------------------------------------|



1:49

------------------------------------------------------------------|
------------------------------------------------------------------|
--------------------------------------^---^------------^----^-----|
-------------------------------------6-0-3-5---------13-0-10-12---|
-------------------------6----------------------------------------|
-0-0-0-0-0-0-0-0-0-0-0-0-6\--0-0-0-0---------0-0-0-0--------------|
 * * * * * * * * * * * *     * * * *         * * * *


--------------------------------------------------------------|
--------------------------------------------------------------|
----------------------------------------------^-----------^---|
---------------------------------------------0-1-1-1-1-1-1-0--|
-------------------------6-3--^-----------^-------------------|
-0-0-0-0-0-0-0-0-0-0-0-0-6-3-0-1-1-1-1-1-1-0------------------|
 * * * * * * * * * * * *         * * * *         * * * * 


--------------------------------------------------------------------|
----------------------------------------------------------^----^----|
---------------------------------------^----^-----------13-0-10-12--|
-------------------------------------13-0-10-12---------------------|
-------------------------6------------------------------------------|
-0-0-0-0-0-0-0-0-0-0-0-0-6\--0-0-0-0------------0-0-0-0-------------|
 * * * * * * * * * * * *     * * * *            * * * * 



-------------------------------------------------------------|
--------------------------------------------4-3-1-3-4-3-1-3--|
-----------------------------^-------------------------------|
----------------------------0-1-1-1-1-1-1-1------------------|
------------------------6-3----------------------------------|
0-0-0-0-0-0-0-0-0-0-0-0-6-3----------------------------------|
* * * * * * * * * * * *         * * * * * *


2:02
W/FILTER

-------------------------------------------------------------------------------------------------|
-4--3--1--3--4--3--1--3--4--3--1--3--4--3--1--3--4--3--1--3--4--3--1--3--4--3--1--3--4--3--1--3--|
-------------------------------------------------------------------------------------------------|
-------------------------------------------------------------------------------------------------|
-------------------------------------------------------------------------------------------------|
-------------------------------------------------------------------------------------------------|




2:10

---------------------------------------------------------------------------|
---------------------------------------------------------------------------|
---------------------------------------------------------------------------|
-8-7-5-7-8-7-5-7-8-7-5--88------------8-7-5-7-8-7-5-7-8-7-5--88------------|
-6-7-3-5-6-5-3-5-6-5-3--66-000--0000--6-7-3-5-6-5-3-5-6-5-3--66-000--0000--|
---------------------------000--0000----------------------------000--0000--|
                        ** ***  ****                         ** ***  ****

------------------------------------------------------------------------------|
------------------------------------------------------------------------------|
------------------------------------------------------------------------------|
-8-7-5-7-8-7-5-7-8-7-5--88------------8-7-5-7-8-7-10-8---12-10---13-12-10-12--|
-6-7-3-5-6-5-3-5-6-5-3--66-000--0000--6-7-3-5-6-5--8-6---10--8---11-10--8-10--|
---------------------------000--0000-------------------0-------0--------------|
                        ** ***  ****                   *       *  


---------------------------------------------------------------------------|
---------------------------------------------------------------------------|
---------------------------------------------------------------------------|
-8-7-5-7-8-7-5-7-8-7-5--88------------8-7-5-7-8-7-5-7-8-7-5--88------------|
-6-7-3-5-6-5-3-5-6-5-3--66-000--0000--6-7-3-5-6-5-3-5-6-5-3--66-000--0000--|
---------------------------000--0000----------------------------000--0000--|
                        ** ***  ****                         ** ***  ****

------------------------------------------------------------------------------|
------------------------------------------------------------------------------|
------------------------------------------------------------------------------|
-8-7-5-7-8-7-5-7-8-7-5--88------------8-7-5-7-8-7-10-8---12-10---13-12-10-12--|
-6-7-3-5-6-5-3-5-6-5-3--66-000--0000--6-7-3-5-6-5--8-6---10--8---11-10--8-10--|
---------------------------000--0000-------------------0-------0--------------|
                        ** ***  ****                   *       *  




2:40

---------------------------------------------|
---------------------------------------------|
---13-13---7-7---13-13---8-8---13-10-12------|
----X--X---X-X----X--X---X-X----X--X--X------|
---11-11---5-5---11-11---6-6---11--8/10------|
-0-------0-----0-------0-----0---------------|
 *       *     *       *     *


2:45

                                                                ________
--)---------------------------------^------^---------^---------/        \-----/13-12-10---------)(--|
12-------)(-----)(----)(---)(-----13-10--13-10--^--13-10--^--13-10-13-10-13------------13-10-/15--~~|
12-----12-----12----12---12--10--------12-----12-10-----12-10--------------10-----------------------|
-------------------------------12-------------------------------------------------------------------|
----------------------------------------------------------------------------------------------------|
----------------------------------------------------------------------------------------------------|


---------------------------------------------|
---------------------------------------------|
---13-13---7-7---13-13---8-8---13-10-12------|
----X--X---X-X----X--X---X-X----X--X--X------|
---11-11---5-5---11-11---6-6---11--8/10------|
-0-------0-----0-------0-----0---------------|
 *       *     *       *     *


                       =22TH                                   =24TH
            __________________________________________________
------------) |  |  |  |  |  |  |  |  |  |  |  |  |  |  |  | (---)-------|
----18-20-20-20-20-20-20-20-20-20-20-20-20-20-20-20-20-20-20---20---20~--|
/19----------------------------------------------------------------------|
-------------------------------------------------------------------------|
-------------------------------------------------------------------------|
-------------------------------------------------------------------------|

---------------------------------------------|
---------------------------------------------|
---13-13---7-7---13-13---8-8---13-10-12------|
----X--X---X-X----X--X---X-X----X--X--X------|
---11-11---5-5---11-11---6-6---11--8/10------|
-0-------0-----0-------0-----0---------------|
 *       *     *       *     *



-1310101015101010131010101510101013101010151010101310--1013151010-1310--1010-|
-----------------------------------------------------13---------------13-----|
-----------------------------------------------------------------------------|
-----------------------------------------------------------------------------|
-----------------------------------------------------------------------------|
-----------------------------------------------------------------------------|
                        __       __       __       __      ____
          ///          /  \     /  \     /  \     /  \    /    \
-1310--10-16---------13-16-13-12-15-12-11-14-11-10-13-10-8-11-8\7------------|
-----13----------------------------------------------------------------------|
----------------------------------------------------------------------/-\W-+-|
-----------------------------------------------------------------------------|
-----------------------------------------------------------------------------|
-----------------------------------------------------------------------------|

---------------------------------------------|
---------------------------------------------|
---13-13---7-7---13-13---8-8---13-10-12------|
----X--X---X-X----X--X---X-X----X--X--X------|
---11-11---5-5---11-11---6-6---11--8/10------|
-0-------0-----0-------0-----0---------------|
 *       *     *       *     *


RYTHM DURING SOLO 2:45,3:05
---------------------------------------------------------------------------------------------|
---------------------------------------------------------------------------------------------|
---------------------------------------------------------------------------------------------|
---------------------------------------------------------------------------------------------|
-0-----------0-----------0-----------0-----------0-----------0-----------0-------------------|
-0--0--0--0--0--0--0--0--0--0--0--0--0--0--0--0--0--0--0--0--0--0--0--0--0--0--0--0--0-3/-\--|
    *  *  *     *  *  *     *  *  *     *  *  *     *  *  *     *  *  *     *  *  *
2:55,
---------------------------------------------------------------------------------------------|
---------------------------------------------------------------------------------------------|
---------------------------------------------------------------------------------------------|
---------------------------------------------------------------------------------------------|
-0-----------0-----------0-----------0-----------0-----------0-----------0-------------------|
-0--0--0--0--0--0--0--0--0--0--0--0--0--0--0--0--0--0--0--0--0--0--0--0--0--0--0--0--0-3/6\3-|
    *  *  *     *  *  *     *  *  *     *  *  *     *  *  *     *  *  *     *  *  *






3:14


----------------------------------------------------------------------------------|
----------------------------------------------------------------------------------|
----------------------------------------------------------------------------------|
----------------------------------------------------------------------------------|
-17-0-12-15-0-0-18-0-12-15-0-0-17-0-15-0-17-0-12-15-0-0-18-0-12-15-0-0-17-0-15-0--|
----------------------------------------------------------------------------------|

----------------------------------------------------------------------------------|
----------------------------------------------------------------------------------|
----------------------------------------------------------------------------------|
----------------------------------------------------------------------------------|
-17-0-12-15-0-0-18-0-12-15-0-0-17-0-15-0-17-0-12-15-0-0-18-0-12-15-0-0-17-0-15-0--|
----------------------------------------------------------------------------------|

----------------------------------------------------------------------------------|
----------------------------------------------------------------------------------|
----------------------------------------------------------------------------------|
----------------------------------------------------------------------------------|
-17-0-12-15-0-0-18-0-12-15-0-0-17-0-15-0-17-0-12-15-0-0-18-0-12-15-0-0-17-0-15-0--|
----------------------------------------------------------------------------------|

----------------------------------------------------------------------------------|
----------------------------------------------------------------------------------|
----------------------------------------------------------------------------------|
----------------------------------------------------------------------------------|
-17-0-12-15-0-0-18-0-12-15-0-0-17-0-15-0-17-0-12-15-0-0-18-0-12-15-0-0-17-0-15-0--|
----------------------------------------------------------------------------------|




-----------------------------------------------------------------------------|
-----------------------------------------------------------------------------|
--^--------^--------^--------^--------^--------^--------^--------^-----------|
-1-0------1-0------1-0------1-0------1-0------1-0------1-0------1-0----------|
-1-0-310--1-0-310--1-0-310--1-0-310--1-0-310--1-0-310--1-0-310--1-0-31-5-6---|
-----310------310------310------310------310------310------310------31-5-6---|
     ***      ***      ***      ***      ***      ***      ***      **


-----------------------------------------------------------------------------|
-----------------------------------------------------------------------------|
--^--------^--------^--------^--------^--------^--------^--------^-----------|
-1-0------1-0------1-0------1-0------1-0------1-0------1-0------1-0----------|
-1-0-310--1-0-310--1-0-310--1-0-310--1-0-310--1-0-310--1-0-310--1-0-31-5-6---|
-----310------310------310------310------310------310------310------31-5-6---|
     ***      ***      ***      ***      ***      ***      ***      **






-------------------------------------------------------------------------|
-------------------------------------------------------------------------|
---------------------------------------------^---^------------^----^-----|
--------------------------------------------6-0-3-5---------13-0-10-12---|
----1---------------------------6----------------------------------------|
-00-1---0-0-0-0-0-0-0-0-0-0-0-0-6\--0-0-0-0---------0-0-0-0--------------|
 **     * * * * * * * * * * * *     * * * *         * * * *


--------------------------------------------------------------|
--------------------------------------------------------------|
----------------------------------------------^-----------^---|
---------------------------------------------0-1-1-1-1-1-1-0--|
-------------------------6-3--^-----------^-------------------|
-0-0-0-0-0-0-0-0-0-0-0-0-6-3-0-1-1-1-1-1-1-0------------------|
 * * * * * * * * * * * *         * * * * 


--------------------------------------------------------------------|
----------------------------------------------------------^----^----|
---------------------------------------^----^-----------13-0-10-12--|
-------------------------------------13-0-10-12---------------------|
-------------------------6------------------------------------------|
-0-0-0-0-0-0-0-0-0-0-0-0-6\--0-0-0-0------------0-0-0-0-------------|
 * * * * * * * * * * * *     * * * *            * * * * 



-------------------------------------------------------------|
--------------------------------------------4-3-1-3-4-3-1-3--|
-----------------------------^-------------------------------|
----------------------------0-1-1-1-1-1-1-1------------------|
------------------------6-3----------------------------------|
0-0-0-0-0-0-0-0-0-0-0-0-6-3----------------------------------|
* * * * * * * * * * * *         * * * * * * 

-------------------------------------------------------------------------------------------------|
-------------------------------------------------------------------------------------------------|
------------------------^---^--------^----^---------------------------------------^-----------^--|
-----------------------6-0-3-5-----13-0-10-12------------------------------------0-1-1-1-1-1-1-0-|
000--000--000--6---000---------000------------000--000--000--6-3--^-----------^------------------|
000--000--000--6-\-000---------000------------000--000--000--6-3-0-1-1-1-1-1-1-0-----------------|
***  ***  ***      ***         ***            ***  ***  ***          * * * *         * * * * 


--------------------------------------------------------------------|
----------------------------------------------------------^----^----|
---------------------------------------^----^-----------13-0-10-12--|
-------------------------------------13-0-10-12---------------------|
-------------------------6------------------------------------------|
-0-0-0-0-0-0-0-0-0-0-0-0-6\--0-0-0-0------------0-0-0-0-------------|
 * * * * * * * * * * * *     * * * *            * * * * 



-------------------------------------------------------------|
--------------------------------------------4-3-1-3-4-3-1-3--|
-----------------------------^-------------------------------|
----------------------------0-1-1-1-1-1-1-1------------------|
------------------------6-3----------------------------------|
0-0-0-0-0-0-0-0-0-0-0-0-6-3----------------------------------|
* * * * * * * * * * * *         * * * * * * 



------------------------------------------------------------------|
-4-3-1-3-4-3-1-3-4-3-1-3-4-3-1-3-4-3-1-3-4-3----------------------|
------------------------------------------------------------------|
-------------------------------------------------8-7-5-8-7--------|
-------------------------------------------------6-5-3-6-5--\-----|
----------------------------------------------00---------0--------|
                                              **









            
            
Suggest correction
Creating personal tab
Creating personal tab
You can edit any tab online and save it as your Personal.

You can edit, replace or remove any tab part or add personal notes – all changes will be seen only by you.

Personal tabs can be accessed anytime from any device, even offline.
Learn more »
Give kudos to tab author, rate the tab!
1 2 3 4 5
comments
print report bad tab
12 comments total. Showing first comments. show 1 bad comment
+2 reply
CapitalNO! 10 Oct 01, 2014 04:38 PM

I don't see how this is much different to Ver. 1 other than you've moved the same notes onto other strings...

+2 reply
CapitalNO! 10 Oct 02, 2014 01:06 AM

You sound like such a tool... The song was out for days before version 1 was posted. I don't think it would have been rushed that much. As far as experience goes, I don't think it necessarily matters where notes are placed just so long as it's the correct note and it's comfortable to play without having to over stretch or slide from one end of the neck to the other. This is a good tab don't get me wrong, but when I give small criticism about tab difference , don't bitch about other people...

guest
You may want to rate the tab now too:
select rating
Wanna post a correction for this tab? Suggest correction