Oops, an error
Loading. Please wait.

Now We Die tab

version 2
version 2

Whole song

Interactive

2,756 views 1 this week
10 commentsread comments
1 2 3 4 5
1 last vote to show rating
add to favorites
×
Save as Personal and add changes to this tab that will be seen only by you. Learn more ›
×
You can save this tab as Personal to edit and correct it or add notes. All changes will be seen only by you. Learn more »
launch autoscroll
font size
0
reset
how to read this tab
guitar tuner
backing track
0:00
0:00
edit
Autoscroll
slow
fast
+/-
esc
set tempo
stop
MACHINE HEAD

NOW WE DIE

B-F#-B-E-G#-C# + OFFSET


TABBED BY andherembrace





0:28

-----------------------------------------------------------------------|
-----------------------------------------------------------------------|
-------------4-6-7-\-------13-------7-6-3--------------------8---------|
-------4-5-8----------------x-------------7-5-4--------------x---------|
-4-5-8----------------0----11-\-0---------------7-4-5-\-0----6-\-0-----|
----------------------0--0------0-----------------------0--0-----0-----|
 * * * * * * * *         *          * * * * * * * *        *

-----------------------------------------------------------------------|
-----------------------------------------------------------------------|
-------------4-6-7-\-------13-------7-6-3--------------------8---------|
-------4-5-8----------------x-------------7-5-4--------------x---------|
-4-5-8----------------0----11-\-0---------------7-4-5-\-0----6-\-0-----|
----------------------0--0------0-----------------------0--0-----0-----|
 * * * * * * * *         *          * * * * * * * *        *

-----------------------------------------------------------------------|
-----------------------------------------------------------------------|
-------------4-6-7-\-------13-------7-6-3--------------------8---------|
-------4-5-8----------------x-------------7-5-4--------------x---------|
-4-5-8----------------0----11-\-0---------------7-4-5-\-0----6-\-0-----|
----------------------0--0------0-----------------------0--0-----0-----|
 * * * * * * * *         *          * * * * * * * *        *

-----------------------------------------------------------------------|
-----------------------------------------------------------------------|
-------------4-6-7-\-------13-------7-6-3--------------------8---------|
-------4-5-8----------------x-------------7-5-4--------------x---------|
-4-5-8----------------0----11-\-0---------------7-4-5-\-0----6-\-0-0---|
----------------------0--0------0-----------------------0--0-----0-0---|
 * * * * * * * *         *          * * * * * * * *        *

-----------------------------------------------------|
-----------------------------------------------------|
-------------4-6-----------------5---------------5---|
-------4-5-8-------------------5---------------5-----|
-4-5-8-------------0-3-3---1-------0-3-3---1---------|
-------------------0-3-3-0-1-0-----0-3-3-0-1-0-------|
 * * * * * * * *         *   * H H       *   * H H    





0:58


-------------------------------------------------------------|
-------------------------------------------------------------|
-7----------13-----------------13---------8------------------|
-X-----------X------------------X---------X------------------|
-5-----0----11-\-0-0-0-0-0-0-0-11----0----6-\-0-0-0-0-0-0-0--|
----00-0--0------0-0-0-0-0-0-0----00-0--0-----0-0-0-0-0-0-0--|
    **    *      * * * * * * *    **    *     * * * * * * *


-------------------------------------------------------------|
-------------------------------------------------------------|
-7----------13-----------------13---------8------------------|
-X-----------X------------------X---------X------------------|
-5-----0----11-\-0-0-0-0-0-0-0-11----0----6--3-3---1---------|
----00-0--0------0-0-0-0-0-0-0----00-0--0----3-3-0-1-0-1111--|
    **    *      * * * * * * *    **    *        *   * ****



-------------------------------------------------------------|
-------------------------------------------------------------|
-7----------13-----------------13---------8------------------|
-X-----------X------------------X---------X------------------|
-5-----0----11-\-0-0-0-0-0-0-0-11----0----6-\-0-0-0-0-0-0-0--|
----00-0--0------0-0-0-0-0-0-0----00-0--0-----0-0-0-0-0-0-0--|
    **    *      * * * * * * *    **    *     * * * * * * *


-------------------------------------------------------------|
-------------------------------------------------------------|
-7----------13-----------------13---------8------------------|
-X-----------X------------------X---------X------------------|
-5-----0----11-\-0-0-0-0-0-0-0-11----0----6--3-3---1---------|
----00-0--0------0-0-0-0-0-0-0----00-0--0----3-3-0-1-0-1111--|
    **    *      * * * * * * *    **    *        *   * ****




1:24


------------------------------------------------------------------|
------------------------------------------------------------------|
-12----------12----------12----------12----------12------12-------|
-10-10101010-10-10101010-10-10101010-10-10101010-10-1010-10-1010--|
------------------------------------------------------------------|
------------------------------------------------------------------|
     * * * *     * * * *     * * * *     * * * *     * *     * *


------------------------------------------------------------------|
-11----------11----------11----------11----------11------11-------|
-12----------12----------12----------12----------12------12-------|
-10-10101010-10-10101010-10-10101010-10-10101010-10-1010-10-1010--|
------------------------------------------------------------------|
------------------------------------------------------------------|
     * * * *     * * * *     * * * *     * * * *     * *     * *



1:30

-------------------------------------------------------------------------------------|
-------------------------------------------------------------------------------------|
-------------------------------------------------------------------------------------|
-------------------------------------------------------------------------------------|
-1-----1--------------5-----5---------------0-----0--------------3-----3-------------|
-1-1-1-1-------/8-7---5-5-5-5--8-8/10-8-7---0-0-0-0-------/8-7---3-3-3-3--8-8/10-8-7-|
   * *                  * *                   * *                  * *

-------------------------------------------------------------------------------------|
-------------------------------------------------------------------------------------|
-------------------------------------------------------------------------------------|
-------------------------------------------------------------------------------------|
-1-----1--------------5-----5---------------0-----0--------------3-----3-------------|
-1-1-1-1-------/8-7---5-5-5-5--8-8/10-8-7---0-0-0-0-------/8-7---3-3-3-3-------------|
   * *                  * *                   * *                  * *




1:58

-----------------------------------------------------------------------|
-----------------------------------------------------------------------|
-------------4-6-7-\-------13-------7-6-3--------------------8---------|
-------4-5-8----------------x-------------7-5-4--------------x---------|
-4-5-8----------------0----11-\-0---------------7-4-5-\-0----6-\-0-----|
----------------------0--0------0-----------------------0--0-----0-----|
 * * * * * * * *         *          * * * * * * * *        *

-----------------------------------------------------------------------|
-----------------------------------------------------------------------|
-------------4-6-7-\-------13-------7-6-3--------------------8---------|
-------4-5-8----------------x-------------7-5-4--------------x---------|
-4-5-8----------------0----11-\-0---------------7-4-5-\-0----6-\-0-0---|
----------------------0--0------0-----------------------0--0-----0-0---|
 * * * * * * * *         *          * * * * * * * *        *

-----------------------------------------------------|
-----------------------------------------------------|
-------------4-6-----------------5---------------5---|
-------4-5-8-------------------5---------------5-----|
-4-5-8-------------0-3-3---1-------0-3-3---1---------|
-------------------0-3-3-0-1-0-----0-3-3-0-1-0-------|
 * * * * * * * *         *   * H H       *   * H H    





2:15

-------------------------------------------------------------|
-------------------------------------------------------------|
-7----------13-----------------13---------8------------------|
-X-----------X------------------X---------X------------------|
-5-----0----11-\-0-0-0-0-0-0-0-11----0----6-\-0-0-0-0-0-0-0--|
----00-0--0------0-0-0-0-0-0-0----00-0--0-----0-0-0-0-0-0-0--|
    **    *      * * * * * * *    **    *     * * * * * * *


-------------------------------------------------------------|
-------------------------------------------------------------|
-7----------13-----------------13---------8------------------|
-X-----------X------------------X---------X------------------|
-5-----0----11-\-0-0-0-0-0-0-0-11----0----6--3-3---1---------|
----00-0--0------0-0-0-0-0-0-0----00-0--0----3-3-0-1-0-1111--|
    **    *      * * * * * * *    **    *        *   * ****



-------------------------------------------------------------|
-------------------------------------------------------------|
-7----------13-----------------13---------8------------------|
-X-----------X------------------X---------X------------------|
-5-----0----11-\-0-0-0-0-0-0-0-11----0----6-\-0-0-0-0-0-0-0--|
----00-0--0------0-0-0-0-0-0-0----00-0--0-----0-0-0-0-0-0-0--|
    **    *      * * * * * * *    **    *     * * * * * * *


-------------------------------------------------------------|
-------------------------------------------------------------|
-7----------13-----------------13---------8------------------|
-X-----------X------------------X---------X------------------|
-5-----0----11-\-0-0-0-0-0-0-0-11----0----6--3-3---1---0-1---|
----00-0--0------0-0-0-0-0-0-0----00-0--0----3-3-0-1-0-0-1---|
    **    *      * * * * * * *    **    *        *   * 





2:40

------------------------------------------------------------------|
------------------------------------------------------------------|
-12----------12----------12----------12----------12------12-------|
-10-10101010-10-10101010-10-10101010-10-10101010-10-1010-10-1010--|
------------------------------------------------------------------|
------------------------------------------------------------------|
     * * * *     * * * *     * * * *     * * * *     * *     * *


------------------------------------------------------------------|
-11----------11----------11----------11----------11------11-------|
-12----------12----------12----------12----------12------12-------|
-10-10101010-10-10101010-10-10101010-10-10101010-10-1010-10-1010--|
------------------------------------------------------------------|
------------------------------------------------------------------|
     * * * *     * * * *     * * * *     * * * *     * *     * *




2:47

-------------------------------------------------------------------------------------|
-------------------------------------------------------------------------------------|
-------------------------------------------------------------------------------------|
-------------------------------------------------------------------------------------|
-1-----1--------------5-----5---------------0-----0--------------3-----3-------------|
-1-1-1-1-------/8-7---5-5-5-5--8-8/10-8-7---0-0-0-0-------/8-7---3-3-3-3--8-8/10-8-7-|
   * *                  * *                   * *                  * *

-------------------------------------------------------------------------------------|
-------------------------------------------------------------------------------------|
-------------------------------------------------------------------------------------|
-------------------------------------------------------------------------------------|
-1-----1--------------5-----5---------------0-----0--------------3-----3-------------|
-1-1-1-1-------/8-7---5-5-5-5--8-8/10-8-7---0-0-0-0-------/8-7---3-3-3-3-------------|
   * *                  * *                   * *                  * *




1
-----------------------------------------------------------------------|
-----------------------------------------------------------------------|
-------------4-6-7-\----------------7-6-3------------------------------|
-------4-5-8------------------------------7-5-4------------------------|
-4-5-8----------------0-------------------------7-4-5-\-0--------------|
----------------------0---------------------------------0--------------|
 * * * * * * * *                    * * * * * * * *        
2
-------------------------------------------------------------------------------------------|
-----------------15-----15-----15-----15-----15--16---15-----15-----15-----15-----15--16---|
-------------------14-14--14-14--14-14--14-14--14--14---14-14--14-14--14-14--14-14--14--14-|
-------------------------------------------------------------------------------------------|
-------------------------------------------------------------------------------------------|
-------------------------------------------------------------------------------------------|

1
-----------------------------------------------------------------------|
-----------------------------------------------------------------------|
-------------4-6-7-\----------------7-6-3------------------------------|
-------4-5-8------------------------------7-5-4------------------------|
-4-5-8----------------0-------------------------7-4-5-\-0-------1------|
----------------------0---------------------------------0-------1------|
 * * * * * * * *                    * * * * * * * *              |
2
--------------------------------------------------------------------------|
-----------------15-----15-----15-----15-----15--16---15-----15-----15----|
-------------------14-14--14-14--14-14--14-14--14--14---14-14--14-14--14--|
--------------------------------------------------------------------------|
--------------------------------------------------------------------------|
--------------------------------------------------------------------------|




3:28


---------------------------------------------------------|
---------------------------------------------------------|
-7--------13-----------------13--------8-----------------|
-x---------x------------------x--------x-----------------|
-5-\-0----11-\-0-0-0-0-0-0-0-11-\-0----6-\0-0-0-0-0-0-0--|
-----0--0------0-0-0-0-0-0-0------0--0----0-0-0-0-0-0-0--|
        *      * * * * * * *         *    * * * * * * *

--------------------------------------------------------|
--------------------------------------------------------|
-7--------13-----------------13--------8----------------|
-x---------x------------------x--------x----------------|
-5-\-0----11-\-0-0-0-0-0-0-0-11-\-0----6--0-1-3-0-1-3---|
-----0--0------0-0-0-0-0-0-0------0--0----0-1-3-0-1-3---|
        *      * * * * * * *         *      * *   * *




--------------------------------------------------------|
--------------------------------------------------------|
-7------------------------------------------------------|
-x--------6-----------------6--------1------------------|
-5-\-0----x---0-0-0-0-0-0-0-x---0----x---0-0-0-0-0-0-0--|
-----0--0-6-\-0-0-0-0-0-0-0-6-\-0--0-1-/-0-0-0-0-0-0-0--|
        *     * * * * * * *        *     * * * * * * *

----------------------------------------------------|
----------------------------------------------------|
-7--------------------------------------------------|
-x--------6-----------------6--------1--------------|
-5-\-0----x---0-0-0-0-0-0-0-x---0----x-0-1-3-0-1-3--|
-----0--0-6-\-0-0-0-0-0-0-0-6-\-0--0-1-0-1-3-0-1-3--|
        *     * * * * * * *        *     * *   * * 




3:55


SOLO

----10----12----13---15-----)----)-------------------------------/13-12--------------------------|
--------------------------12---12--------^----------^--------PH--------13-----------PH)----------|
5/7---7/9---9/10---12--12-12---12-1010-12-10-1010-12-10-1010-12~~--------12\10-9-10-10--10-9-10~-|
-------------------------------------------------------------------------------------------------|
-------------------------------------------------------------------------------------------------|
-------------------------------------------------------------------------------------------------|
                                   * *        * *        * *


4:03
      _________           ______
SOLO  ) |   |( \          )   ( \        )        ^           ^
-101213-13-13-1210--101213-----1210-10-13----10-13-10-13-10-13-10--10-|
13----------------13---------------13-------13-------------------13---|
----------------------------------------------------------------------|
----------------------------------------------------------------------|
----------------------------------------------------------------------|
----------------------------------------------------------------------|
                                                       *  *


4:07

SOLO_________________       _________________
---/                 \-----/                 \------|
-10-11-18-10-11-18-10-11-10-11-20-10-11-20-10-11----|
----------------------------------------------------|
----------------------------------------------------|
----------------------------------------------------|
----------------------------------------------------|
       T         T              T        T               

4:10

SOLO
--------------------------------------------------------------------|
--------------------------------------------------------------------|
---^-------10---------10--12------14------12------1010-----99-------|
-10-12-1212---12121212--12--121212--121212--121212----1212---1212---|
--------------------------------------------------------------------|
--------------------------------------------------------------------|
        * *    * * * *      * * *    * * *   * * *     * *    * *                  

4:13

SOLO
----------------------------------------------------------------------------|
----------------------------------------------------------------------------|
-5-7-5-7-7-9-7-9-9-10-9-10-10-12-10-12-12-14-12-14-14-15-14-15-15-17-15-17--|
----------------------------------------------------------------------------|
----------------------------------------------------------------------------|
----------------------------------------------------------------------------|
 * * * * * * * * *  * *  *  *  *  *  *  *  *  *  *  *  *  *  *  *  *  *  *

4:16
                                                __
SOLO              )              )             /  \        )  )|   )
----------13-15-16--16~~~--131516--16~~~15-1317/18\17-13-14-1414-14---/22-18-17--17-18-20/22-|
-13-15-17-----------------------------------------------------------13---------18------------|
---------------------------------------------------------------------------------------------|
---------------------------------------------------------------------------------------------|
---------------------------------------------------------------------------------------------|


RYTHM THRU SOLO

-----------------------------------------------------------|
-----------------------------------------------------------|
-7---------7------------------7---------7------------------|
-X---------X------------------X---------X------------------|
-5----0----5-\----------------5----0----5-\----------------|
---00-0-00-----00000000000000---00-0-00-----0000000000000--|
   **   **     **************   **   **     *************

-------------------------------------------------------------|
-------------------------------------------------------------|
10---------10------------------8---------8-------------------|
-X----------X------------------X---------X-------------------|
-8----3-----8-\----------------6----1----6-\-----------------|
---33-3-33------33333333333333---11-1-11-----11111111111111--|
   **   **      **************   **   **     **************

-----------------------------------------------------------|
-----------------------------------------------------------|
-7---------7------------------7---------7------------------|
-X---------X------------------X---------X------------------|
-5----0----5-\----------------5----0----5-\----------------|
---00-0-00-----00000000000000---00-0-00-----0000000000000--|
   **   **     **************   **   **     *************

-------------------------------------------------------------|
-------------------------------------------------------------|
10---------10------------------8---------8-------------------|
-X----------X------------------X---------X-------------------|
-8----3-----8-\----------------6----1----6-\-----------------|
---33-3-33------33333333333333---11-1-11-----11111111111111--|
   **   **      **************   **   **     **************







4:23


L
----_________________________________________________________________________________----|
---/                                                                                 \---|
-15-12-8-12-14-12-8-12-15-12-8-12-14-12-8-12-15-12-8-12-17-12-8-12-15-12-8-12-14-12-8-12-|
-----------------------------------------------------------------------------------------|
-----------------------------------------------------------------------------------------|
-----------------------------------------------------------------------------------------|
 T           T          T          T          T          T          T          T   
R
----_________________________________________________________________________________________----|
---/                                                                                         \---|
-20-15-12-10-19-15-12-10-20-15-12-10-19-15-12-10-20-15-12-10-22-15-12-10-20-15-12-10-19-15-12-10-|
-------------------------------------------------------------------------------------------------|
-------------------------------------------------------------------------------------------------|
-------------------------------------------------------------------------------------------------|
  T           T           T           T           T           T           T           T 

L
----_________________________________________________________________________________----|
---/                                                                                 \---|
-15-12-7-12-14-12-7-12-15-12-7-12-14-12-7-12-15-12-7-12-17-12-7-12-15-12-7-12-14-12-7-12-|
-----------------------------------------------------------------------------------------|
-----------------------------------------------------------------------------------------|
-----------------------------------------------------------------------------------------|
 T           T          T          T          T          T          T          T
R
----_________________________________________________________________________________________----|
---/                                                                                         \---|
-19-15-12-10-17-15-12-10-19-15-12-10-17-15-12-10-19-15-12-10-20-15-12-10-19-15-12-10-17-15-12-10-|
-------------------------------------------------------------------------------------------------|
-------------------------------------------------------------------------------------------------|
-------------------------------------------------------------------------------------------------|
  T           T           T           T           T           T           T           T

L
----_________________________________________________________________________________----|
---/                                                                                 \---|
-15-10-7-10-14-10-7-10-15-10-7-10-14-10-7-10-15-10-7-10-17-10-7-10-15-10-7-10-14-10-7-10-|
-----------------------------------------------------------------------------------------|
-----------------------------------------------------------------------------------------|
-----------------------------------------------------------------------------------------|
 T           T          T          T          T          T          T          T 
R
----_________________________________________________________________________________________----|
---/                                                                                         \---|
-19-15-12-10-17-15-12-10-19-15-12-10-17-15-12-10-19-15-12-10-20-15-12-10-19-15-12-10-17-15-12-10-|
-------------------------------------------------------------------------------------------------|
-------------------------------------------------------------------------------------------------|
-------------------------------------------------------------------------------------------------|
 T            T           T           T           T           T           T           T

L
---__________________________________________________________________________---|
--/                                                                          \--|
15-10-8-7-14-10-8-7-15-10-8-7-17-10-8-7-19-10-8-7-20-10-8-7-19-10-8-7-17-10-8-7-|
--------------------------------------------------------------------------------|
--------------------------------------------------------------------------------|
--------------------------------------------------------------------------------|
 T         T         T         T         T         T         T         T
R
----_________________________________________________________________________________________----|
---/                                                                                         \---|
-19-15-12-10-17-15-12-10-19-15-12-10-20-15-12-10-22-15-12-10-24-15-12-10-22-15-12-10-20-15-12-10-|
-------------------------------------------------------------------------------------------------|
-------------------------------------------------------------------------------------------------|
-------------------------------------------------------------------------------------------------|
  T          T            T           T           T           T           T           T 


4:36


L
----_________________________________________________________________________________----|
---/                                                                                 \---|
-15-12-8-12-14-12-8-12-15-12-8-12-14-12-8-12-15-12-8-12-17-12-8-12-15-12-8-12-14-12-8-12-|
-----------------------------------------------------------------------------------------|
-----------------------------------------------------------------------------------------|
-----------------------------------------------------------------------------------------|
 T           T          T          T          T          T          T          T   
R
----_________________________________________________________________________________________----|
---/                                                                                         \---|
-20-15-12-10-19-15-12-10-20-15-12-10-19-15-12-10-20-15-12-10-22-15-12-10-20-15-12-10-19-15-12-10-|
-------------------------------------------------------------------------------------------------|
-------------------------------------------------------------------------------------------------|
-------------------------------------------------------------------------------------------------|
  T           T           T           T           T           T           T           T 

L
----_________________________________________________________________________________----|
---/                                                                                 \---|
-15-12-7-12-14-12-7-12-15-12-7-12-14-12-7-12-15-12-7-12-17-12-7-12-15-12-7-12-14-12-7-12-|
-----------------------------------------------------------------------------------------|
-----------------------------------------------------------------------------------------|
-----------------------------------------------------------------------------------------|
 T           T          T          T          T          T          T          T
R
----_________________________________________________________________________________________----|
---/                                                                                         \---|
-19-15-12-10-17-15-12-10-19-15-12-10-17-15-12-10-19-15-12-10-20-15-12-10-19-15-12-10-17-15-12-10-|
-------------------------------------------------------------------------------------------------|
-------------------------------------------------------------------------------------------------|
-------------------------------------------------------------------------------------------------|
  T           T           T           T           T           T           T           T

L
----_________________________________________________________________________________----|
---/                                                                                 \---|
-15-10-7-10-14-10-7-10-15-10-7-10-14-10-7-10-15-10-7-10-17-10-7-10-15-10-7-10-14-10-7-10-|
-----------------------------------------------------------------------------------------|
-----------------------------------------------------------------------------------------|
-----------------------------------------------------------------------------------------|
 T           T          T          T          T          T          T          T 
R
----_________________________________________________________________________________________----|
---/                                                                                         \---|
-19-15-12-10-17-15-12-10-19-15-12-10-17-15-12-10-19-15-12-10-20-15-12-10-19-15-12-10-17-15-12-10-|
-------------------------------------------------------------------------------------------------|
-------------------------------------------------------------------------------------------------|
-------------------------------------------------------------------------------------------------|
 T            T           T           T           T           T           T           T

L                                                   )~~~
---____________________________________________---11-------------|
--/                                            \-----------------|
15-10-8-7-14-10-8-7-15-10-8-7-17-10-8-7-19-10-8-7----------------|
-----------------------------------------------------------------|
-----------------------------------------------------------------|
-----------------------------------------------------------------|
 T         T         T         T         T                      )~~~~
----_____________________________________________________-----15-----|
---/                                                     \-----------|
-19-15-12-10-17-15-12-10-19-15-12-10-20-15-12-10-22-15---------------|
-------------------------------------------------------13-12---------|
---------------------------------------------------------------------|
---------------------------------------------------------------------|
  T          T            T           T           T      




5:01
CLEAN
           X15             REPEAT
---10--^--------------------------|
-----10-11------13-11-10----------|
12-----------------------10-------|
----------------------------------|
----------------------------------|
----------------------------------|






6:08

-----------------------------------------------------------------------|
-----------------------------------------------------------------------|
-------------4-6-7-\-------13-------7-6-3--------------------8---------|
-------4-5-8----------------x-------------7-5-4--------------x---------|
-4-5-8----------------0----11-\-0---------------7-4-5-\-0----6-\-0-----|
----------------------0--0------0-----------------------0--0-----0-----|
 * * * * * * * *         *          * * * * * * * *        *

-----------------------------------------------------------------------|
-----------------------------------------------------------------------|
-------------4-6-7-\-------13-------7-6-3--------------------8---------|
-------4-5-8----------------x-------------7-5-4--------------x---------|
-4-5-8----------------0----11-\-0---------------7-4-5-\-0----6-\-0-----|
----------------------0--0------0-----------------------0--0-----0-----|
 * * * * * * * *         *          * * * * * * * *        *

-----------------------------------------------------------------------|
-----------------------------------------------------------------------|
-------------4-6-7-\-------13-------7-6-3--------------------8---------|
-------4-5-8----------------x-------------7-5-4--------------x---------|
-4-5-8----------------0----11-\-0---------------7-4-5-\-0----6-\-0-----|
----------------------0--0------0-----------------------0--0-----0-----|
 * * * * * * * *         *          * * * * * * * *        *

-----------------------------------------------------------------------|
-----------------------------------------------------------------------|
-------------4-6-7-\-------13-------7-6-3--------------------8---------|
-------4-5-8----------------x-------------7-5-4--------------x---------|
-4-5-8----------------0----11-\-0---------------7-4-5-\-0----6-\-0-0---|
----------------------0--0------0-----------------------0--0-----0-0---|
 * * * * * * * *         *          * * * * * * * *        *

-----------------------------------------------------|
-----------------------------------------------------|
-------------4-6-----------------5---------------5---|
-------4-5-8-------------------5---------------5-----|
-4-5-8-------------0-3-3---1-------0-3-3---1---------|
-------------------0-3-3-0-1-0-----0-3-3-0-1-0-------|
 * * * * * * * *         *   * H H       *   * H H    


6:38


---------------------------------------------------------|
---------------------------------------------------------|
-7--------13-----------------13--------8-----------------|
-x---------x------------------x--------x-----------------|
-5-\-0----11-\-0-0-0-0-0-0-0-11-\-0----6-\0-0-0-0-0-0-0--|
-----0--0------0-0-0-0-0-0-0------0--0----0-0-0-0-0-0-0--|
        *      * * * * * * *         *    * * * * * * *

------------------------------------------------------------|
------------------------------------------------------------|
-7--------13-----------------13--------8--------------------|
-x---------x------------------x--------x--------------------|
-5-\-0----11-\-0-0-0-0-0-0-0-11-\-0----6--0-1-3-0-1-3-0-----|
-----0--0------0-0-0-0-0-0-0------0--0----0-1-3-0-1-3-0-----|
        *      * * * * * * *         *      * *   * *


            
            
Suggest correction
Creating personal tab
Creating personal tab
You can edit any tab online and save it as your Personal.

You can edit, replace or remove any tab part or add personal notes – all changes will be seen only by you.

Personal tabs can be accessed anytime from any device, even offline.
Learn more »
Give kudos to tab author, rate the tab!
1 2 3 4 5
comments
print report bad tab
10 comments total. Showing first comments.
0 reply
slipknot836 1,839 Sep 29, 2014 03:43 PM, edited at 07:44 pm

Lack of formatting. Incorrect main riff. Solo inaccurate. I'm not being a big head because someone might make a better more accurate version to my tab, but this definitely isn't it. Sorry

0 reply
andherembrace 5,631 Sep 29, 2014 04:35 PM

might wanna get your ears checked mr butthurt

+2 reply
slipknot836 1,839 Sep 29, 2014 04:50 PM

I tried being considered and polite... Now who's being butthurt?

guest
You may want to rate the tab now too:
select rating
Wanna post a correction for this tab? Suggest correction