Oops, an error
Loading. Please wait.

Old tab

version 2
version 2

Whole song

8,185 views 15 this week
2 commentsread comments
1 2 3 4 5
x 5
add to favorites
×
Save as Personal and add changes to this tab that will be seen only by you. Learn more ›
×
You can save this tab as Personal to edit and correct it or add notes. All changes will be seen only by you. Learn more »
launch autoscroll
font size
0
reset
how to read this tab
guitar tuner
edit
Autoscroll
slow
fast
+/-
esc
set tempo
stop
#----------------------------------PLEASE NOTE---------------------------------#
#This file is the author's own work and represents their interpretation of the #
#song. You may only use this file for private study, scholarship, or research. #
#------------------------------------------------------------------------------##

                                       OLD
                           As recorded by Machine Head
                       (From the 1994 Album BURN MY EYES)

Words by Robb Flynn

Music by Robb Flynn, Logan Mader, Adam Duce, Chris Kontos
Transcribed by Doetje2

Gtr I (D G C F A D) - 'Untitled'
Gtr II (D G C F A D) - 'Untitled'
Gtr III (D G C F A D) - 'Untitled'
Gtr IV (D G C F A D) - 'Untitled'

 Intro
  Moderately Slow Rock Q=112
  N.C.
 4/4
  Gtr I
  \3.5___/2___\4
  S     +E   +S  +H     Q    S S S S E. S S S S S E.S   Q   S E  S S  S E Q
|--------------------------|--------------------------|-----------------------|
|--------------------------|--------------------------|-----------------------|
|--------------------------|--------------------------|-----------------------|
|--------------------------|----------------x---xsxsx-|----/x---\x---\x-------|
|--------------------------|------------xsx-----------|-----------------------|
|-0-----(0)--(0)-(0)-------|-xsx---xsx/---------------|-----------------------|


  Gtr I
        \7___/0_________________________________________________\4__________/0____
  H     S    E.   +Q       +Q     +H.                  +Q.     +E    +Q     Q
|-----------------------|---------------------------|----------------------------|
|-----------------------|---------------------------|----------------------------|
|------<5>--<5>--(<5>)--|-(<5>)--(<5>)--------------|-(<5>)---(<5>)-(<5>)--<5>---|
|-----------------------|---------------------------|----------------------------|
|-----------------------|---------------------------|----------------------------|
|-----------------------|---------------------------|----------------------------|
|
| Gtr II
|                                           \7___/
| W                         H           Q   S    E.    +H            +H
|-----------------------|---------------------------|----------------------------|
|-----------------------|---------------------------|----------------------------|
|-----------------------|------------------<5>--<5>-|-(<5>)---------(<5>)--------|
|-----------------------|---------------------------|----------------------------|
|-----------------------|---------------------------|----------------------------|
|-----------------------|---------------------------|----------------------------|


                     \3__________________/2.5____\4.5_________/0____
   +H       +Q.     +E      +E   E  E.   S      +E      +E    Q
|------------------------|-----------------------------------------|
|------------------------|-----------------------------------------|
|-(<5>)----(<5>)---(<5>)-|-(<5>)--------<5>----(<5>)---(<5>)--5----|
|------------------------|-----------------------------------------|
|------------------------|-----------------------------------------|
|------------------------|-----------------------------------------|
|
|                                   \1/          \1/          \1/
|  +W                        Q     +Q           +Q           +Q
|------------------------|-----------------------------------------|
|------------------------|-----------------------------------------|
|-(<5>)------------------|---3-----(3)----------(3)----------(3)---|
|------------------------|-----------------------------------------|
|------------------------|---1-----(1)----------(1)----------(1)---|
|------------------------|-----------------------------------------|


                                                   \3.5____________/0___
                                             ~~~~~
   +H            +H                 +Q.     +E    +Q        E      E
|-------------------------|--------------------------------------------|
|-------------------------|--------------------------------------------|
|-(<5>)---------(<5>)-----|--------(<5>)---(<5>)-(<5>)------------<5>--|
|-------------------------|--------------------------------------------|
|-------------------------|--------------------------------------------|
|-------------------------|--------------------------------------------|
|
|   \1/   \3.5               \4.5____/0_____________________\0.5________
|                                                           ~~~~~~~~~~~~
|  +Q    +H            Q     a       H             Q       +Q
|-------------------------|--------------------------------------------|
|-------------------------|--------------------------------------------|
|--(3)---(3)--------------|-<5>-----<5>-----------<5>-----(<5>)--------|
|-------------------------|--------------------------------------------|
|--(1)---(1)--------------|--------------------------------------------|
|-------------------------|--------------------------------------------|


                     \4____________/
   +H       +Q.     +E      +E    +E    +E   E  S   S   S   S   S   S   S   S
|------------------------|------------------------------------------------------||
|------------------------|------------------------------------------------------||
|-(<5>)----(<5>)---(<5>)-|-(<5>)-(<5>)-(<5>)------------------------------------||
|------------------------|------------------------------------------------------||
|------------------------|------------------------------------------------------||
|------------------------|---------------------[0]-[0]-[0]-[0]-[0]-[0]-[0]-[0]--||
|
|            /                           \1/
|~~~~~~~
|  +H       +H               Q          +Q      S   S   S   S   S   S   S   S
|------------------------|------------------------------------------------------||
|------------------------|------------------------------------------------------||
|-(<5>)----(<5>)---------|---3----------(3)-------------------------------------||
|------------------------|------------------------------------------------------||
|------------------------|---1----------(1)-------------------------------------||
|------------------------|----------------------0---0---0---0---0---0---0---0---||


Main Riff
    Gtrs III, IV
        PM|   PM|                    PM|   PM|
    E E S S E S S E S S S S   a  E E S S E S S E S S S S
||--------------------------|----------------------------|
||o-------------------------|----------------------------|
||------------------7s9-9s7-|-7s10-9-------------7s9-9s7-|
||--3-----------------------|----------------------------|
||o-1-2-----3-----2-5s7-7s5-|-5s=8-7-----8-----2-5s7-7s5-|
||----0-0-0-1-0-0-0---------|--------0-0-6-0-0-0---------|


                           1.,2.
      PM|   PM|                    PM|    PM------------|
  E E S S E S S E S S S S   a  E E S S E  S S S S S S S S  3x
|-------------------------|--------------------------------||
|-------------------------|-------------------------------o||
|-----------------7s9-9s7-|-7s10-9-------------------------||
|-------------------------|--------------------------------||
|-8-2-----3-----2-5s7-7s5-|-5s=8-7-----8\-----------------o||
|-6-0-0-0-1-0-0-0---------|--------0-0-6\-0-0-0-0-0-0-0-0--||


                                        Verse
  3.
  Gtr III                                Gtrs III, IV
         PM|    PM-----------------|         PM  PM  PM   PM------------|
  a  E E S S E  S  S   S S S  S  S S     S S S S S S S  S S S S S S S S S
|------------------------------------||-----------------------------------|
|------------------------------------||o----------------------------------|
|-7s10-9-----------------------------||-----------------------------------|
|------------------------------------||--3-0-------7---10-----------------|
|-5s=8-7-----8\----------------------||o-------8---5----8-----------------|
|--------0-0-6\-0--0---0-0-0--0--0-0-||------0-6-0---0----0-0-0-0-0-0-0-0-|
|
| Gtr IV
|        PM|
| a  E E S S E  S  Q         +E.         W
|------------------------------------||-----------------------------------|
|------------------------------------||o----------------------------------|
|-7s10-9-----------------------------||-----------------------------------|
|-----------------[2]/-------(2)-----||-----------------------------------|
|-5s=8-7-----8\----------------------||o----------------------------------|
|--------0-0-6\----------------------||-----------------------------------|


      PM  PM  PM   PM~~ PM~~       PM  PM  PM   PM------------|
  S S S S S S S  S S E. S E.   S S S S S S S  S S S S S S S S S
|----------------------------|----------------------------------|
|----------------------------|----------------------------------|
|----------------------------|----------------------------------|
|-3-0-------7---10-----------|-3-0-------7---10-----------------|
|-------8---5----8-----------|-------8---5----8-----------------|
|-----0-6-0---0----0-3--0-3--|-----0-6-0---0----0-0-0-0-0-0-0-0-|


      PM  PM  PM   PM~~ PM~~       PM  PM  PM   PM------------|
  S S S S S S S  S S E. S E.   S S S S S S S  S S S S S S S S S
|----------------------------|----------------------------------|
|----------------------------|----------------------------------|
|----------------------------|----------------------------------|
|-3-0-------7---10-----------|-3-0-------7---10-----------------|
|-------8---5----8-----------|-------8---5----8-----------------|
|-----0-6-0---0----0-3--0-3--|-----0-6-0---0----0-0-0-0-0-0-0-0-|


      PM  PM  PM   PM~~ PM~~       PM  PM  PM   PM------------|
  S S S S S S S  S S E. S E.   S S S S S S S  S S S S S S S S S
|----------------------------|----------------------------------|
|----------------------------|----------------------------------|
|----------------------------|----------------------------------|
|-3-0-------7---10-----------|-3-0-------7---10-----------------|
|-------8---5----8-----------|-------8---5----8-----------------|
|-----0-6-0---0----0-3--0-3--|-----0-6-0---0----0-0-0-0-0-0-0-0-|


                               Chorus
      PM  PM  PM   PM~~ PM~~        PM          PM
  S S S S S S S  S S E. S E.    E E S E S +S  E S E E
|----------------------------||-----------------------|
|----------------------------||-----------------------|
|----------------------------||-----------------------|
|-3-0-------7---10-----------||-----------------------|
|-------8---5----8-----------||-2-3-6-3-2-(2)-3-6-3-2-|
|-----0-6-0---0----0-3--0-3--||-0-1-4-1-0-(0)-1-4-1-0-|


      PM          PM          PM          PM
  E E S E S +S  E S E E   E E S E S +S  E S E E
|-----------------------|-----------------------|
|-----------------------|-----------------------|
|-----------------------|-----------------------|
|-----------------------|-----------------------|
|-2-3-6-3-2-(2)-3-6-3-2-|-2-3-6-3-2-(2)-3-6-3-2-|
|-0-1-4-1-0-(0)-1-4-1-0-|-0-1-4-1-0-(0)-1-4-1-0-|


      PM        PM--|               PM          PM
  E E S E S +S  S S S S S S S   E E S E S +S  E S E E
|-----------------------------|-----------------------|
|-----------------------------|-----------------------|
|---------------------0-------|-----------------------|
|-------------------0---2-1-0-|-----------------------|
|-2-3-6-3-2-(2)-1-2-----------|-2-3-6-3-2-(2)-3-6-3-2-|
|-0-1-4-1-0-(0)---------------|-0-1-4-1-0-(0)-1-4-1-0-|


      PM          PM          PM          PM
  E E S E S +S  E S E E   E E S E S +S  E S E E
|-----------------------|-----------------------|
|-----------------------|-----------------------|
|-----------------------|-----------------------|
|-----------------------|-----------------------|
|-2-3-6-3-2-(2)-3-6-3-2-|-2-3-6-3-2-(2)-3-6-3-2-|
|-0-1-4-1-0-(0)-1-4-1-0-|-0-1-4-1-0-(0)-1-4-1-0-|


  1.
                          PM|   PM|
  E E S E S E E Q     E E S S E S S E S S S S
|------------------||-------------------------|
|------------------||-------------------------|
|------------------||-----------------7s9-9s7-|
|------------------||-3-----------------------|
|-2-3-6-3---5------||-1-2-----3-----2-5s7-7s5-|
|-0-1-4-1-0-3------||---0-0-0-1-0-0-0---------|


         PM|   PM|                 PM|   PM|
  a  E E S S E S S E S S S S   E E S S E S S E S S S S
|----------------------------|-------------------------|
|----------------------------|-------------------------|
|-7s10-9-------------7s9-9s7-|-----------------7s9-9s7-|
|----------------------------|-------------------------|
|-5s=8-7-----8-----2-5s7-7s5-|-8-2-----3-----2-5s7-7s5-|
|--------0-0-6-0-0-0---------|-6-0-0-0-1-0-0-0---------|


         PM|    PM------------|
  a  E E S S E  S S S S S S S S
|-------------------------------|
|-------------------------------|
|-7s10-9------------------------|
|-------------------------------|
|-5s=8-7-----8\-----------------|
|--------0-0-6\-0-0-0-0-0-0-0-0-|


      PM|   PM|                    PM|   PM|
  E E S S E S S E S S S S   a  E E S S E S S E S S S S
|-------------------------|----------------------------|
|-------------------------|----------------------------|
|-----------------7s9-9s7-|-7s10-9-------------7s9-9s7-|
|-3-----------------------|----------------------------|
|-1-2-----3-----2-5s7-7s5-|-5s=8-7-----8-----2-5s7-7s5-|
|---0-0-0-1-0-0-0---------|--------0-0-6-0-0-0---------|


  Gtr III
      PM|   PM|                    PM|    PM-----------------|
  E E S S E S S E S S S S   a  E E S S E  S  S   S S S  S  S S
|-------------------------|-------------------------------------||
|-------------------------|------------------------------------o||
|-----------------7s9-9s7-|-7s10-9------------------------------||
|-------------------------|-------------------------------------||
|-8-2-----3-----2-5s7-7s5-|-5s=8-7-----8\----------------------o||
|-6-0-0-0-1-0-0-0---------|--------0-0-6\-0--0---0-0-0--0--0-0--||
|
| Gtr IV
|     PM|   PM|                    PM|
| E E S S E S S E S S S S   a  E E S S E  S  Q         +E.
|-------------------------|-------------------------------------||
|-------------------------|------------------------------------o||
|-----------------7s9-9s7-|-7s10-9------------------------------||
|-------------------------|-----------------[2]/-------(2)------||
|-8-2-----3-----2-5s7-7s5-|-5s=8-7-----8\----------------------o||
|-6-0-0-0-1-0-0-0---------|--------0-0-6\-----------------------||


  2.
  Gtrs III, IV
  E E S E S E E Q     W          +W           +H     +E  E S  S  S S
|------------------||----------|------------|--------------------------|
|------------------||----------|------------|--------------------------|
|------------------||----------|------------|--------------9s11-11s9---|
|------------------||----------|------------|--------------------------|
|-2-3-6-3---5------||-4--------|-(4)--------|-(4)----(4)---7s=9--9s7---|
|-0-1-4-1-0-3------||-2--------|-(2)--------|-(2)----(2)-0-------------|


  a  E  E E E +H         E E  E  S S +S  S  E  S S  E
|--------------------||--------------------------------|
|--------------------||o-------------------------------|
|-9s12-11---5-(5)----||------<5>-----------<5>-----<5>-|
|--------------------||--------------------------------|
|-7s10--9---3-(3)----||o-4-4-----4-4-(4)-4-----4-4-----|
|---------0----------||--2-2-----2-2-(2)-2-----2-2-----|

  E E  E  S S +S  S  E  S S S S
|-------------------------------|
|-------------------------------|
|-----<5>-----------<5>---------|
|-------------------------------|
|-4-4-----4-4-(4)-4-----4-4-4-3-|
|-2-2-----2-2-(2)-2-----2-2-2-3-|


  E E  E  S S +S  S S S S  S  S S   a  E  E E E +H
|---------------------------------|---------------------||
|---------------------------------|--------------------o||
|-----<5>---------------9s11-11s9-|-9s12-11---5-(5)-----||
|---------------------------------|---------------------||
|-4-4-----4-4-(4)-4-4---7s=9--9s7-|-7s10--9---3-(3)----o||
|-2-2-----2-2-(2)-2-2-0-----------|---------0-----------||


 Bridge
 7/8
  E E E S S +S  E. E   E E E S S +S  E. E
|--------------------|--------------------|
|--------------------|--------------------|
|--------------------|--------------------|
|--------------------|--------------------|
|-2-------4-(4)-3----|-2-------4-(4)-3----|
|-0-----0-2-(2)-1----|-0-----0-2-(2)-1----|


  E E E S S +S  E. E   E E E S S +S  E. E
|--------------------|--------------------|
|--------------------|--------------------|
|--------------------|--------------------|
|--------------------|--------------------|
|-2-------4-(4)-3----|-2-------4-(4)-3----|
|-0-----0-2-(2)-1----|-0-----0-2-(2)-1----|


  PM--------------| ~   PM--------------| ~
  E E E S S +S  E S E   E E E S S +S  E S E
|---------------------|---------------------|
|---------------------|---------------------|
|---------------------|---------------------|
|---------------------|---------------------|
|---------------------|---------------------|
|-0-2-1-0-2-(2)-1-0-1-|-0-2-1-0-2-(2)-1-0-1-|


  Gtr III
  PM--------------|  ~~~  PM--------------| ~
  E E E S S +S  E S  E    E E E S S +S  E S E
|-----------------------|---------------------|
|-----------------------|---------------------|
|-----------------------|---------------------|
|-----------------------|---------------------|
|-----------------------|---------------------|
|-0-2-1-0-2-(2)-1-0--1--|-0-2-1-0-2-(2)-1-0-1-|
|
| Gtr IV
| PM--------------|  ~~~  PM--------------| ~
| E E E S S +S  E S  E    E E E S S +S  E S E
|-----------------------|---------------------|
|-----------------------|---------------------|
|-----------------------|---------------------|
|-----------------------|---------------------|
|-2-4-3-2-4-(4)-3-2-[3]-|-2-4-3-2-4-(4)-3-2-3-|
|-----------------------|---------------------|


   PM----------------| ~    PM----------------| ~
   E   E E S S +S  E S E    E   E E S S +S  E S E
|------------------------|------------------------|
|------------------------|------------------------|
|------------------------|------------------------|
|------------------------|------------------------|
|------------------------|------------------------|
|--0---2-1-0-2-(2)-1-0-1-|--0---2-1-0-2-(2)-1-0-1-|
|
|  TP                       TP
|  H..                      H..
|------------------------|------------------------|
|------------------------|------------------------|
|-11---------------------|-12---------------------|
|------------------------|------------------------|
|--9---------------------|-10---------------------|
|------------------------|------------------------|


   PM----------------| ~    PM---------------|  ~~~
   E   E E S S +S  E S E    E  E E S S +S  E S  E
|------------------------|-------------------------|
|------------------------|-------------------------|
|------------------------|-------------------------|
|------------------------|-------------------------|
|------------------------|-------------------------|
|--0---2-1-0-2-(2)-1-0-1-|--0--2-1-0-2-(2)-1-0--1--|
|
|  TP                       TP
|  H..                      H.                  E
|------------------------|-------------------------|
|------------------------|-------------------------|
|-13---------------------|-17------------------17\-|
|------------------------|-------------------------|
|-11---------------------|-15------------------15\-|
|------------------------|-------------------------|


  Gtrs III, IV
        PM        PM          PM        PM          PM        PM
  E E E S S +S  E S E   E E E S S +S  E S E   E E E S S +S  E S E
|---------------------|---------------------|---------------------|
|---------------------|---------------------|---------------------|
|---------------------|---------------------|---------------------|
|---------------------|---------------------|---------------------|
|-2-4-3---4-(4)-3---3-|-2-4-3---4-(4)-3---3-|-2-4-3---4-(4)-3---3-|
|-0-2-1-0-2-(2)-1-0-1-|-0-2-1-0-2-(2)-1-0-1-|-0-2-1-0-2-(2)-1-0-1-|


        PM        PM          PM        PM          PM        PM
  E E E S S +S  E S E   E E E S S +S  E S E   E E E S S +S  E S E
|---------------------|---------------------|---------------------|
|---------------------|---------------------|---------------------|
|---------------------|---------------------|---------------------|
|---------------------|---------------------|---------------------|
|-2-4-3---4-(4)-3---3-|-2-4-3---4-(4)-3---3-|-2-4-3---4-(4)-3---3-|
|-0-2-1-0-2-(2)-1-0-1-|-0-2-1-0-2-(2)-1-0-1-|-0-2-1-0-2-(2)-1-0-1-|


                       3/4                4/4
        PM        PM          PM
  E E E S S +S  E S E   E E E S S +S  E.   W
|---------------------|------------------|------||
|---------------------|------------------|------||
|---------------------|------------------|------||
|---------------------|------------------|------||
|-2-4-3---4-(4)-3---3-|-2-4-3---4-(4)-3--|------||
|-0-2-1-0-2-(2)-1-0-1-|-0-2-1-0-2-(2)-1--|------||


      PM          PM          PM          PM
  E E S E S +S  E S E E   E E S E S +S  E S E E
|-----------------------|-----------------------|
|-----------------------|-----------------------|
|-----------------------|-----------------------|
|-----------------------|-----------------------|
|-4-5-8-5-4-(4)-5-8-5-4-|-4-5-8-5-4-(4)-5-8-5-4-|
|-2-3-6-3-2-(2)-3-6-3-2-|-2-3-6-3-2-(2)-3-6-3-2-|


      PM          PM          PM        PM--|
  E E S E S +S  E S E E   E E S E S +S  S S S S S S S
|-----------------------|-----------------------------|
|-----------------------|-----------------------------|
|-----------------------|---------------------2-------|
|-----------------------|-------------------2---4-3-2-|
|-4-5-8-5-4-(4)-5-8-5-4-|-4-5-8-5-4-(4)-3-4-----------|
|-2-3-6-3-2-(2)-3-6-3-2-|-2-3-6-3-2-(2)---------------|


      PM          PM          PM          PM
  E E S E S +S  E S E E   E E S E S +S  E S E E
|-----------------------|-----------------------|
|-----------------------|-----------------------|
|-----------------------|-----------------------|
|-----------------------|-----------------------|
|-4-5-8-5-4-(4)-5-8-5-4-|-4-5-8-5-4-(4)-5-8-5-4-|
|-2-3-6-3-2-(2)-3-6-3-2-|-2-3-6-3-2-(2)-3-6-3-2-|


  Gtr III
      PM          PM          PM
  E E S E S +S  E S E E   E E S E S  S   S   S   S   S   S   S   S
|-----------------------|-------------------------------------------||
|-----------------------|-------------------------------------------||
|-----------------------|-------------------------------------------||
|-----------------------|-------------------------------------------||
|-4-5-8-5-4-(4)-5-8-5-4-|-4-5-8-5-4---------------------------------||
|-2-3-6-3-2-(2)-3-6-3-2-|-2-3-6-3-2-[3]-[3]-[3]-[3]-[3]-[3]-[3]-[3]-||
|
| Gtr IV
|     PM          PM          PM
| E E S E S +S  E S E E   E E S E S  S   S   S   S   S   S   S   S
|-----------------------|-------------------------------------------||
|-----------------------|-------------------------------------------||
|-----------------------|-------------------------------------------||
|-----------------------|-------------------------------------------||
|-4-5-8-5-4-(4)-5-8-5-4-|-4-5-8-5-4-[0]-[0]-[0]-[0]-[0]-[0]-[0]-[0]-||
|-2-3-6-3-2-(2)-3-6-3-2-|-2-3-6-3-2---------------------------------||


  Gtrs III, IV
      PM|   PM|                    PM|   PM|
  E E S S E S S E S S S S   a  E E S S E S S E S S S S
|-------------------------|----------------------------|
|-------------------------|----------------------------|
|-----------------7s9-9s7-|-7s10-9-------------7s9-9s7-|
|-3-----------------------|----------------------------|
|-1-2-----3-----2-5s7-7s5-|-5s=8-7-----8-----2-5s7-7s5-|
|---0-0-0-1-0-0-0---------|--------0-0-6-0-0-0---------|


  Gtr III
      PM|   PM|                    PM|
  E E S S E S S E S S S S   a  E E S S E  H             E E Q  H
|-------------------------|---------------------------|-------------*|
|-------------------------|---------------------------|-------------*|
|-----------------7s9-9s7-|-7s10-9--------------------|-------------*|
|-------------------------|---------------------------|-4-----------*|
|-8-2-----3-----2-5s7-7s5-|-5s=8-7-----8\-------------|-2-2---------*|
|-6-0-0-0-1-0-0-0---------|--------0-0-6\-------------|---0---------*|
|
| Gtr IV
|     PM|   PM|                    PM|       TP    TP
| E E S S E S S E S S S S   a  E E S S E  S  Q    +E.   E E Q  H
|-------------------------|---------------------------|-------------*|
|-------------------------|---------------------------|-------------*|
|-----------------7s9-9s7-|-7s10-9--------------------|-------------*|
|-------------------------|-----------------[2]/--(2)-|-4-----------*|
|-8-2-----3-----2-5s7-7s5-|-5s=8-7-----8\-------------|-2-2---------*|
|-6-0-0-0-1-0-0-0---------|--------0-0-6\-------------|---0---------*|


Duration Legend
---------------
W - whole; H - half; Q - quarter; E - 8th; S - 16th; T - 32nd; X - 64th; a - acciaccatura
+ - note tied to previous; . - note dotted; .. - note double dotted
Uncapitalized letters represent notes that are staccato (1/2 duration)
Irregular groupings are notated above the duration line
Duration letters will always appear directly above the note/fret number it represents the
duration for.  Duration letters with no fret number below them represent rests.  Multi-
bar rests are notated in the form Wxn, where n is the number of bars to rest for.  Low
melody durations appear below the staff

Tablature Legend
----------------
 h   - hammer-on
 p   - pull-off
 b   - bend
 pb  - pre-bend
 r   - bend release (if no number after the r, then release immediately)
 /\  - slide into or out of (from/to "nowhere")
 s   - legato slide
 S   - shift slide
  - natural harmonic
[n]  - artificial harmonic
n(n) - tapped harmonic
 ~   - vibrato
 tr  - trill
 T   - tap
 TP  - trem. picking
 PM  - palm muting
\n/  - tremolo bar dip; n = amount to dip
 \n  - tremolo bar down
 n/  - tremolo bar up
/n\  - tremolo bar inverted dip
 =   - hold bend; also acts as connecting device for hammers/pulls
 <>  - volume swell (louder/softer)
 x   - on rhythm slash represents muted slash
 o   - on rhythm slash represents single note slash

Misc Legend
-----------
 |  - bar
||  - double bar
||o - repeat start
o|| - repeat end
*|  - double bar (ending)
 :  - bar (freetime)
 $  - Segno
 &  - Coda
Tempo markers -  = BPM(8/16=s8/s16), where s8 = swing 8ths, s16 = swing 16ths


***************************************************************************************
* Generated using Power Tab Editor by Brad Larsen - http://powertab.guitarnetwork.org *
***************************************************************************************

            
            
Suggest correction
Creating personal tab
Creating personal tab
You can edit any tab online and save it as your Personal.

You can edit, replace or remove any tab part or add personal notes – all changes will be seen only by you.

Personal tabs can be accessed anytime from any device, even offline.
Learn more »
comments
print report bad tab
2 comments total.
0 reply
emil_sej 372 May 05, 2010 09:38 AM

Looks really good.

0 reply
BullMannen91 10 Apr 26, 2012 09:03 AM

its good but its C# standard

guest
You may want to rate the tab now too:
select rating
Wanna post a correction for this tab? Suggest correction