Oops, an error
Loading. Please wait.

Cant Hold Us intro tab

15,591 views 45 this week
4 commentsread comments
1 2 3 4 5
x 22
add to favorites
×
Save as Personal and add changes to this tab that will be seen only by you. Learn more ›
×
You can save this tab as Personal to edit and correct it or add notes. All changes will be seen only by you. Learn more »
launch autoscroll
font size
0
reset
how to read this tab
guitar tuner
edit
Autoscroll
slow
fast
+/-
esc
set tempo
stop
Author
Difficulty
e-------------------------------------------------------------------|
B-------------------------------------------------------------------|
G-------------------------------------------------------------------|
D----------------------12--12--12-----------------------------------|
A--14-14--14--14----12-12--12--12----9-9--9--9----10-10-10-10-------|
E--12-12--12--12----10-10--10--10----7-7--7--7----8--8--8--8--------|

Enjoy! :¬D

            
            
Suggest correction
Creating personal tab
Creating personal tab
You can edit any tab online and save it as your Personal.

You can edit, replace or remove any tab part or add personal notes – all changes will be seen only by you.

Personal tabs can be accessed anytime from any device, even offline.
Learn more »
comments
print report bad tab
4 comments total. Showing first comments. show 1 bad comment
0 reply
jcscott500 10 Nov 28, 2014 07:19 AM

e-------------------------------------------------------------------|
B-------------------------------------------------------------------|
G--9--9---9---9-----7--7---7---7------------------------------------|
D--9--9---9---9-----7--7---7---7-----9-9--9--9----10-10-10-10-------|
A--7--7---7---7-----5--5---5---5-----9-9--9--9----10-10-10-10-------|
E------------------------------------7-7--7--7----8--8--8--8--------|

+1 reply
tictaczack17 365 Sep 16, 2015 08:26 AM

Same thing dude.. Yours is an octave lower

guest
You may want to rate the tab now too:
select rating
Wanna post a correction for this tab? Suggest correction