Oops, an error
Loading. Please wait.

Same Love chords

version 3
version 3

Whole song

49,600 views 198 this week
4 commentsread comments
1 2 3 4 5
x 48
add to favorites
×
Save as Personal and add changes to this tab that will be seen only by you. Learn more ›
×
You can save this tab as Personal to edit and correct it or add notes. All changes will be seen only by you. Learn more »
launch autoscroll
font size
0
reset
transpose
0
reset
display chords
guitar tuner
edit
Autoscroll
slow
fast
+/-
esc
set tempo
stop
Strumming
There is no strumming pattern for this song yet. and get +5 IQ
Capo 1
SAME LOVE - Macklemore
-----------------------------------------------------------------
Tabbed by:astodds
Leave suggestions in the comments.
This is my first tab so go easy on me! :)

Tuning: Standard

e|-5----5---------------------------------------------------------|
B|----7----3-----3-----3--6/7-------------------------------------|
G|------------------4---------------------------------------------|
D|-0----------------------0---------------------------------------|
A|---------2------------------------------------------------------|
E|---------------3------------------------------------------------|

e|-5----5------------------------------------------------------------|
B|----7----3-----3-----3---------------------------------------------|
G|------------------4-----2------------------------------------------|
D|-0----------------------0------------------------------------------|
A|---------2---------------------------------------------------------|
E|---------------3---------------------------------------------------|

D                                        Bm
When I was in the third grade I thought that I was gay,
G                                         D
'Cause I could draw, my uncle was, and I kept my room straight.
D                      Bm
I told my mom, tears rushing down my face
               G                                         D
She's like "Ben you've loved girls since before pre-k, trippin' "

The pattern continues throughout the song.



************************************

| /  Slide up

************************************

            
            
Suggest correction
Creating personal tab
Creating personal tab
You can edit any tab online and save it as your Personal.

You can edit, replace or remove any tab part or add personal notes – all changes will be seen only by you.

Personal tabs can be accessed anytime from any device, even offline.
Learn more »
comments
print report bad tab
4 comments total. Showing first comments.
+1 reply
stanblomme 10 Jan 16, 2015 08:13 AM, edited at 01:23 pm

e|-5----5------------------------------------------------------------|
B|----7----3-----3-----3--3------------------------------------------|
G|------------------4-----2-----------------------------------------|
D|-0----------------------0------------------------------------------|
A|---------2---------------------------------------------------------|
E|---------------3---------------------------------------------------|

0 reply
astodds 189 Apr 06, 2015 08:13 AM

Do that if you like, They sound pretty much the same.

0 reply
josephiliff 10 Jul 07, 2015 04:02 AM

LAAAAAAAAAAAD

guest
You may want to rate the tab now too:
select rating
Wanna post a correction for this tab? Suggest correction