Oops, an error
Loading. Please wait.

Same Love tab

version 2
version 2

Whole song

20,128 views 21 this week
1 commentread comment
1 2 3 4 5
x 20
add to favorites
×
Save as Personal and add changes to this tab that will be seen only by you. Learn more ›
×
You can save this tab as Personal to edit and correct it or add notes. All changes will be seen only by you. Learn more »
launch autoscroll
font size
0
reset
how to read this tab
guitar tuner
edit
Autoscroll
slow
fast
+/-
esc
set tempo
stop
Difficulty
tab by: big man

verse
        Eb                   Cm                    Ab                             Eb
e----6-------6-----------------------------------------|
b-------8--------4-------------4---------4------7/8----|
g------------------------------------5-----------------|
d------------------------------------------------------|
a------------------------------------------------------|
E------------------------------------------------------|


                 repeat through verses
                 repeat chords through hole song

Chorus
e-------------------------------------------------------------|
b----8/11----8-----8-------4-----------4----4-----------------|
g------------------------------------5----------5------3------|
d-------------------------------------------------------------|
a-------------------------------------------------------------|
E-------------------------------------------------------------|



e---------------------------------------|
b--------4---4-----------7/8----8-------|
g----5-----------5----------------------|
d---------------------------------------|
a---------------------------------------|

            
            
Suggest correction
Creating personal tab
Creating personal tab
You can edit any tab online and save it as your Personal.

You can edit, replace or remove any tab part or add personal notes – all changes will be seen only by you.

Personal tabs can be accessed anytime from any device, even offline.
Learn more »
comments
print report bad tab
1 comment total.
0 reply
ablaz99 16 Nov 11, 2017 06:49 PM

*whole
you put the wrong word, it's an understandable mistake. I sometimes mess up because I type too fast.

guest
Wanna post a correction for this tab? Suggest correction