Oops, an error
Loading. Please wait.

Souls For Sale chords

5,309 views 1 this week
2 commentsread comments
1 2 3 4 5
x 3
add to favorites
×
Save as Personal and add changes to this tab that will be seen only by you. Learn more ›
×
You can save this tab as Personal to edit and correct it or add notes. All changes will be seen only by you. Learn more »
launch autoscroll
font size
0
reset
transpose
0
reset
display chords
guitar tuner
edit
Autoscroll
slow
fast
+/-
esc
set tempo
stop
Author
Strumming
There is no strumming pattern for this song yet. and get +5 IQ
-------------------------------------------------------------------------------
                             Souls for Sale- Mad Caddies
-------------------------------------------------------------------------------

Tuning: Standard

Lead:
e|------------------------------------------------------------------------------------|
B|----10-11-10-11h13-11-10----10-11-11p10-11h13-11-10-8-8-8h10---8s6s8-8-8h10--8h10p8-|
G|-10-----------------------10---------------------------------7------------7---------|
D|------------------------------------------------------------------------------------|
A|------------------------------------------------------------------------------------|
E|------------------------------------------------------------------------------------|

Ska strumming 
F(x8) Gm(x8) through the entire song 

| /  slide up
| \  slide down
| H  hammer-on
| p  pull-off
| ~  vibrato
| +  harmonic
| x  Mute note
===============================================================================

            
            
Suggest correction
Creating personal tab
Creating personal tab
You can edit any tab online and save it as your Personal.

You can edit, replace or remove any tab part or add personal notes – all changes will be seen only by you.

Personal tabs can be accessed anytime from any device, even offline.
Learn more »
Give kudos to tab author, rate the tab!
1 2 3 4 5
comments
print report bad tab
2 comments total.
0 reply
Skaliveson 1,330 Jul 05, 2009 03:07 PM

Not 100% about the chords, but I saw a youtube video that looked like this.

0 reply
tibblesnbits5 368 Jan 10, 2015 06:52 AM

chords are F and Gm
Lead:
e|--1-----3---
B|--1-----3---
G|--2-----3---
D|--3-----5---
A|--3-----5---
E|--1-----3---

The break down would be the same chords but power chords

guest
You may want to rate the tab now too:
select rating
Wanna post a correction for this tab? Suggest correction