Oops, an error
Loading. Please wait.

Never Take Us Alive tab

version 3
version 3

Whole song

6,498 views 1 this week
2 commentsread comments
1 2 3 4 5
x 4
add to favorites
×
Save as Personal and add changes to this tab that will be seen only by you. Learn more ›
×
You can save this tab as Personal to edit and correct it or add notes. All changes will be seen only by you. Learn more »
launch autoscroll
font size
0
reset
how to read this tab
guitar tuner
edit
Autoscroll
slow
fast
+/-
esc
set tempo
stop
Author
So yeah the VER 2 one was good but the intro was wrong and the solo is missing. so 
here is the better version =].

Madina Lake only has one guitarist (unless the lead singer is rhythm but the 
albums just say that he's the singer), but I'm writing it for two guitars.

CHECK OUT MY COVER!!!
http://www.youtube.com/watch?v=qixcL-tHGHs

DROP D: DADGBe

Key:
. = palm mute
/ = slide up
\ = slide down
~ = let ring
h = hammer on


INTRO---
(palm mute everything)
|------------------------------------|
|------------------------------------|
|------------------------------------|
|------------------------------------|
|-0--------3--------5--------7-------|
|-0-(16x)--3-(16x)--5-(16x)--7-(16x)-|
  .        .        .        .

Guitar 1:
|----------15----------------13-------------------------|
|-13-15-15----15-15-13-15-15----15-15-13-15-15-15-(x4)--|
|-------------------------------------------------------|
|-------------------------------------------------------|
|-------------------------------------------------------|
|-------------------------------------------------------|

Guitar 2:
|-------------------------------------------------------|
|-------------------------------------------------------|
|-------------------------------------------------------|
|-0------------------------8----------------------------|\
|-0--(8x)------------------8--(8x)----------------------| \
|-0------------------------8----------------------------|  \
                                                            - x2 
|-------------------------------------------------------|  /
|-------------------------------------------------------| /
|-------------------------------------------------------|/
|-5-----------------------------------------------------|
|-5--(16x)----------------------------------------------|
|-5-----------------------------------------------------|


VERSE 1---
Guitar 1:
|-------------------------------------------------------|
|-------------------------------------------------------|
|----------12----------------10-------------------------|
|-10-12-12----12-12-10-12-12----12-12-10-12-12-12--(8x)-|
|-------------------------------------------------------|
|-------------------------------------------------------|

Guitar 2:
(comes in after the fourth time of what guitar 1 plays)
(all downward strums)
(palm mute everything)
|-------------------------------------------------------|
|-------------------------------------------------------|
|-------------------------------------------------------|
|-------------------------------------------------------|
|-8-(16x)--5-(16x)--3-(16x)--2-(16x)--------------------|
|-8--------5--------3--------2--------------------------|
  .        .        .        ^
                             --- on this part slowly release the palm mute

CHORUS---
Guitar 1:
|----------15----------------13-------------------------|
|-13-15-15----15-15-13-15-15----15-15-13-15-15-15-(x8)--|
|-------------------------------------------------------|
|-------------------------------------------------------|
|-------------------------------------------------------|
|-------------------------------------------------------|

Guitar 2:
|-------------------------------------------------------|
|-------------------------------------------------------|
|-------------------------------------------------------|
|-0------------------------8----------------------------|\
|-0--(8x)------------------8--(8x)----------------------| \
|-0------------------------8----------------------------|  \
                                                            - x4
|-------------------------------------------------------|  /
|-------------------------------------------------------| /
|-------------------------------------------------------|/
|-5-----------------------------------------------------|
|-5--(16x)----------------------------------------------|
|-5-----------------------------------------------------|


POSTCHORUS---
Both guitars:
|--------------------------------------|
|--------------------------------------|
|--------------------------------------|
|-------5-----------3------------------|
|-3-5-5---5-5-3-5-5---5-5-3-5-5-5-(2x)-|
|--------------------------------------|


VERSE 2---
it's effects for the first half of the verse, so it's hard to tab out.
but here's the second half.

Both guitars:
|-----------------------------------------------------------------|
|-----------------------------------------------------------------|
|-----------------------------------------------------------------|
|-----------------------------------------------------------------|
|-0-0----0--0------0-0----0--0------0-0----0--0------0-0----0--0--|
|-0-0----0--0------0-0----0--0------0-0----0--0------0-0----0--0--|
  . .    .  .      . .    .  .      . .    .  .      . .    .  .


REPEAT CHORUS


SOLO---
Guitar 1:
(strumming might be wrong a bit but the notes are DEFINITELY right)
|-------------------------------------------------------------|
|-------------------------------------------------------------|
|-12-12-12-12-11h12-11-11-11-11-11----------------------------|
|----------------------------------12-12-12-12-12-10-12-12-12-|
|-------------------------------------------------------------|
|-------------------------------------------------------------|

|----------------------------------------------------|
|-------------------10-10-10-13-13-13-13-13-13-13-13-|
|-10-10-10-12-12-12----------------------------------|
|----------------------------------------------------|
|----------------------------------------------------|
|----------------------------------------------------|

|-------------------------------13----13----13---------|
|-15-15-15-15-15-15-15-15-15-15----15----15----15-15~--|
|------------------------------------------------------|
|------------------------------------------------------|
|------------------------------------------------------|
|------------------------------------------------------|

Guitar 2:
|--------------------------------------|
|--------------------------------------|
|--------------------------------------|
|-------5-----------3------------------|
|-3-5-5---5-5-3-5-5---5-5-3-5-5-5-(4x)-|
|--------------------------------------|


BRIDGE---
Both guitars:
|---------------------------------------|
|---------------------------------------|
|---------------------------------------|
|-0~~~----------------------------------|
|-0~~~--------0-0~~-----0~~------0-0~~--|
|-0~~~--------0-0~~-----0~~------0-0~~--|
              . .       .        . .

REPEAT CHORUS


OUTRO:
|-----------------------------------------|
|-----------------------------------------|
|-----------------------------------------|
|-0-0-0-3-3-3-3-3-5-5-5-8-8-8-10-10-12\\--|
|-0-0-0-3-3-3-3-3-5-5-5-8-8-8-10-10-12\\--|
|-0-0-0-3-3-3-3-3-5-5-5-8-8-8-10-10-12\\--|


Hope you enjoyed =]

            
            
Suggest correction
Creating personal tab
Creating personal tab
You can edit any tab online and save it as your Personal.

You can edit, replace or remove any tab part or add personal notes – all changes will be seen only by you.

Personal tabs can be accessed anytime from any device, even offline.
Learn more »
comments
print report bad tab
2 comments total.
0 reply
alexithymia 27 Jul 20, 2009 10:17 AM

Good job, man. =)

I listened to this song over and over again to figure out if you missed something important... I could only come up with one thing: the lead part of the intro. I think it goes like this:

|----------------------------------------------|
|----------------------------------------------|
|-----------10----10--------------10----10-----| x3
|--12-10-12----12----12---10---12----12----12--|
|----------------------------------------------|
|----------------------------------------------|

End with:
|----------------------------------------------|
|----------------------------------------------|
|-----------10----10---------------------------|
|--12-10-12----12----12---12\------------------|
|----------------------------------------------|
|----------------------------------------------|

The timing isn't perfect, but you get the idea.

0 reply
iamghost 807 Nov 06, 2009 04:23 AM

wait what part is this?

guest
You may want to rate the tab now too:
select rating
Wanna post a correction for this tab? Suggest correction