Oops, an error
Loading. Please wait.

Statistics tab

1,834 views 3 this week
1 commentread comment
1 2 3 4 5
x 3
add to favorites
×
Save as Personal and add changes to this tab that will be seen only by you. Learn more ›
×
You can save this tab as Personal to edit and correct it or add notes. All changes will be seen only by you. Learn more »
launch autoscroll
font size
0
reset
how to read this tab
guitar tuner
edit
Autoscroll
slow
fast
+/-
esc
set tempo
stop
Madina Lake
10 - "Statistics"
Attic to Eden (2009)

I only took the time to tab this in Drop D, which most people would think is easier, and 
works.
I only did by ear so it may not be entirely correct but, i just wanted to play to the 
somehow!
It's so catchy.

They might play this in Drop C, but for now i choose to play it in D ...

^___^ I'll try to be as helpful as i can.

Intro: [0:00] - Whole part X2
E|-------------------------------|--------------------------------|
B|-------------------------------|--------------------------------|
G|-----5---------------5---------|------5-----4-----4-----5-----4-|
D|-----------5--5------------5---|--------------------------------|
A|-------------------------------|--------------------------------|
D|-7-7---7-7------7-7----7-7-----|--6-6---6-6---(6)---6-6---6-6---|
Optional to Palm Mute 7s and 6s on the low E - D.
(try not to make the notes ring over as much).


Verse: [0:14] - Whole part/s X2
GTR I,
 |---------------------------|------------------------------|
 |---------------------------|------------------------------|
 |---------------------------|------------------------------|
*|-7-7-5-7-X-X-XX-7-7-5-7--7-|-XX-2-2-0-2-X-X-XX-2-2-0-2--2-|
*|-7-7-5-7-X-X-XX-7-7-5-7--7-|-XX-2-2-0-2-X-X-XX-2-2-0-2--2-|
*|-7-7-5-7-X-X-XX-7-7-5-7--7-|-XX-2-2-0-2-X-X-XX-2-2-0-2--2-|
--On the 2nd time playing the whole thing, add two mutes to the top
strings before the 7 / A5* like the ones before 2 / E5. GTR I only.


GTR II,
|----------------------------|-------------------------|-/-17-17-17\-|
|----------------------------|-------------------------|-------------|
|-14-14-14-14-14-14-14-14-14-|-13-13-13-13-13-13-13-13-|-/-14-14-14\-|
|----------------------------|-------------------------|-------------|
|-12-12-12-12-12-12-12-12-12-|-11-11-11-11-11-11-11-11-|-------------|
|----------------------------|-------------------------|-------------|
stab the notes, deaden them after each strum.
(NOT EXACT AMOUNT, listen to the song where Gtr II parts are, it's easy to
pick up).

Pre-chorus: [0:28] - ANY GTR.
|-/-17-17-17\-|
|-------------|
|-/-14-14-14\-|
|-------------|
|-------------|
|-------------|

Chorus: [0:30]
BOTH GTRS: there might be other parts or added stuff, but i only
figured this out for now perhaps.
|---------------------------|--------------------------|
|---------------------------|--------------------------|
|----------5-5--------------|----------5-5-------------|
|-7-7-7-7-------5--5--5-5-5-|-0-0-0-0-------3--3-5-5-3-| FIRST CHORUS X2
|-7-7-7-7--3-3--5--5--5-5-5-|-0-0-0-0--3-3--3--3-5-5-3-|
|-7-7-7-7-------5--5--5-5-5-|-0-0-0-0-------3--3-5-5-3-|

First Chorus END: [0:45]
|--------|
|--------|
|--------| Piano and effects play for abit.
|--/-7~--| Let it ring until the verse riff/s comes back in.
|--/-7~--|
|--/-7~--|


-- PLAY VERSE PART AGAIN X2 [1:03]
-- PlAY PRE-CHORUS X1 [1:18]
-- INTO THE CHORUS AGAIN, THIS TIME X4 [1:19]


Bridge: Whole thing X2 - Both Gtrs[1:48]                                                 
               **
|-------------------------------------------------------------------------|
|-------------------------------------------------------------------------|
|-------------------------------------------------------------------------|
|-3-3-3-3-3-3-3-3-5-5-5-5-5-5-5-5-7-7-7-7-7-7-7-7-10-10-10-10-10-10-10-10-|
|-3-3-3-3-3-3-3-3-5-5-5-5-5-5-5-5-7-7-7-7-7-7-7-7-10-10-10-10-10-10-10-10-|
|-3-3-3-3-3-3-3-3-5-5-5-5-5-5-5-5-7-7-7-7-7-7-7-7-10-10-10-10-10-10-10-10-|
                                                                       **
(each chord roughly 8 times each)
** you could miss a 10th to slide down to the bridge ending.

Finish bridge on:
|----------|
|----------|
|----------|
|-3~-5~-4~-|
|-3~-5~-0~-|
|-3~-5~-0~-|
 F5  G5 D5

Bridge cont'd: [2:10]
|---------------------------------------------------|
|---------------------------------------------------|
|-14-14-14-14-16-16-16-16-17-17-17-17-19-19-19-\-13-| <
|---------------------------------------------------|   LAST CHORD X16
|-12-12-12-12-14-14-14-14-15-15-15-15-17-17-17-\-11-| < (ROUGHLY I'D SAY..)
|---------------------------------------------------|

2nd time:-
|------------------------------------------------------|
|------------------------------------------------------|
|-14-14-14-14-16-16-16-16-17-17-17-17-19-19-19-\-/-16b~| <
|------------------------------------------------------|   LAST CHORD X8
|-12-12-12-12-14-14-14-14-15-15-15-15-17-17-17-\-/-13b~| < Then Bend upwards
|------------------------------------------------------|   Slowly..

Breakdown: [2:24]
Gtr II's part only X2 - don't forget to stab the chords out,
except the last few.
|----------------------------|-------------------------|-/-17-17-17\-|
|----------------------------|-------------------------|-------------|
|-14-14-14-14-14-14-14-14-14-|-13-13-13-13-13-13-13-13-|-/-14-14-14\-|
|----------------------------|-------------------------|-------------|
|-12-12-12-12-12-12-12-12-12-|-11-11-11-11-11-11-11-11-|-------------|
|----------------------------|-------------------------|-------------|

-- PLAY CHORUS AGAIN - Only X2 for the two last bars/measures. [2:38]


End Song On:
|--------|
|--------|
|--------|
|-(/)-7~-|
|-(/)-7~-|
|-(/)-7~-|
      A5

Lyrics:

[0:06] You're a wolf, you are.
Dressed like a fox,
Got me tied up in knots over you

[0:14] But I think that I'm just a flavor you crave on instinct,
'Cause you don't feel ashamed,
But it won't make a difference.

[0:28] ...

[0:30] I've been wrong so many times.
Let's be realistic,
I'm only a statistic to you,
And it hurts so deep inside.
Maybe I'm sadistic,
I love when you inflict it on me.

[0:47] You can take my time,
'Cause after all, well,
The earth's just a ball that revolves around you.
And all my friends and family try to warn me,
But like a moth to flame,
Darling, lead the way,
'Cause I'm afraid of change,
So meet me in your bedroom.

[1:19] I've been wrong so many times.
Let's be realistic,
I'm only a statistic to you,
And it hurts so deep inside.
Maybe I'm sadistic,
I can't get myself off of you.
I'm only a statistic to you.
I can't get myself off of...

[1:48] I just caught you like a disease.
It's terminal and I'm going down.
But you're a faith that's worse than death
And I gotta get out of this mess.
         F5        G5
You're a wolf, you are.
    D5
You are.

[2:15] (Only a statistic to you.)

[2:24] I've been wrong so many times.
Let's be realistic,
I'm only a statistic to you,
And it hurts so deep inside.
Maybe I'm sadistic,
I can't get myself off of you.
I'm only a statistic to you.
                        A5
I think I'm addicted to you.

Enjoy playing, it's quite a straight-forward song (mind you this is a rough tab) and so 
catchy..! :)
oh, personally my favourite, no doubt. Thanks!

            
            
Suggest correction
Creating personal tab
Creating personal tab
You can edit any tab online and save it as your Personal.

You can edit, replace or remove any tab part or add personal notes – all changes will be seen only by you.

Personal tabs can be accessed anytime from any device, even offline.
Learn more »
Give kudos to tab author, rate the tab!
1 2 3 4 5
comments
print report bad tab
1 comment total.
0 reply
__indieschmindy 70 Jul 23, 2009 09:09 AM

Right, i made this tab everyone, i noticed i made a minor mistake on the bridge bit (2nd time part):-

|------------------------------------------------------|
|------------------------------------------------------|
|-14-14-14-14-16-16-16-16-17-17-17-17-19-19-19-\-/-16b~|
|------------------------------------------------------|
|-12-12-12-12-14-14-14-14-15-15-15-15-17-17-17-\-/-13b~|
|------------------------------------------------------|

Should be this:-
|------------------------------------------------/-16b~|
|------------------------------------------------------|
|-14-14-14-14-16-16-16-16-17-17-17-17-19-19-19-\-/-13b~|
|------------------------------------------------------|
|-12-12-12-12-14-14-14-14-15-15-15-15-17-17-17-\-------|
|------------------------------------------------------|

On the the high e and G strings, sorry! (:

guest
Wanna post a correction for this tab? Suggest correction